AnimeSuki Forums

Register Forum Rules FAQ Members List Social Groups Search Today's Posts Mark Forums Read

Go Back   AnimeSuki Forum > Anime Discussion > Older Series > Retired > K-On!

Notices

Reply
 
Thread Tools
Old 2009-06-06, 19:26   Link #21
Tamekichi
流離っている
 
 
Join Date: Mar 2008
Location: California
Age: 24
Quote:
Originally Posted by rockmanxpr View Post
Sure, this will be up for 7 days FYI

https://www.yousendit.com/download/M...Z1BubVdGa1E9PQ
Thank you very much
Tamekichi is offline   Reply With Quote
Old 2009-06-06, 19:32   Link #22
Justin Kim
Senior Member
*Artist
 
 
Join Date: Feb 2009
Location: Orange County, California
http://josh.agarrado.net/music/anime....php?file=2634

YES! Cagayake-girls transcription on piano is up! Violin version is also on Josh's. I'll probably be posting up a cover shortly.
__________________
Signature stolen by a horde of carnivorous bunnies. It is an unscientifically proven fact that they are attracted to signatures which break the signature rules.
Justin Kim is offline   Reply With Quote
Old 2009-06-06, 20:06   Link #23
waynoinsano
Junior Member
 
Join Date: Jun 2009
could I get some bass tabs on here,please? Don't Say Lazy perfered
waynoinsano is offline   Reply With Quote
Old 2009-06-07, 02:37   Link #24
jawang
Junior Member
 
 
Join Date: Jun 2009
hi, if anyone is interested, below is the tab I worked out for fuwa fuwa time.

note: paste the spoiler into notepad to see proper formatting
Spoiler:


here is a video of what it sounds like, if you wanna hear it before devoting time to read
http://www.youtube.com/watch?v=uoU4lEoby6U
jawang is offline   Reply With Quote
Old 2009-06-07, 20:34   Link #25
Shuin_Zwei
Guitar Newbie
 
 
Join Date: Jun 2008
Location: Shizuoka, Japan
Send a message via Yahoo to Shuin_Zwei
Quote:
Originally Posted by jawang View Post
hi, if anyone is interested, below is the tab I worked out for fuwa fuwa time.

note: paste the spoiler into notepad to see proper formatting
Spoiler:


here is a video of what it sounds like, if you wanna hear it before devoting time to read
http://www.youtube.com/watch?v=uoU4lEoby6U
nice tab I was about to request it again and saw your post great
__________________
Shuin_Zwei is offline   Reply With Quote
Old 2009-06-09, 05:09   Link #26
jawang
Junior Member
 
 
Join Date: Jun 2009
hey, actually someone on youtube requested a tutorial, and I had some time today, so take a look at the video instead, it might be more helpful

"fuwa fuwa time" playalong lesson
http://www.youtube.com/watch?v=nkFSdtRw7tQ


right now, I think I've got every major song down except "dont say lazy" (which is the one song from the show that I don't really like), so if you guys want anything else tabbed out on guitar, let me know
jawang is offline   Reply With Quote
Old 2009-06-09, 05:22   Link #27
rockmanxpr
Senior Member
 
 
Join Date: May 2009
Just curious if anyone is interested in drums for the other songs from the show?
rockmanxpr is offline   Reply With Quote
Old 2009-06-10, 01:10   Link #28
Tamekichi
流離っている
 
 
Join Date: Mar 2008
Location: California
Age: 24
Quote:
Originally Posted by rockmanxpr View Post
Just curious if anyone is interested in drums for the other songs from the show?
*raises hand* Would be very interested.
Tamekichi is offline   Reply With Quote
Old 2009-06-10, 01:40   Link #29
rockmanxpr
Senior Member
 
 
Join Date: May 2009
Quote:
Originally Posted by Tamekichi View Post
*raises hand* Would be very interested.
So which one?
rockmanxpr is offline   Reply With Quote
Old 2009-06-10, 02:15   Link #30
Shuin_Zwei
Guitar Newbie
 
 
Join Date: Jun 2008
Location: Shizuoka, Japan
Send a message via Yahoo to Shuin_Zwei
Quote:
Originally Posted by jawang View Post
hey, actually someone on youtube requested a tutorial, and I had some time today, so take a look at the video instead, it might be more helpful

"fuwa fuwa time" playalong lesson
http://www.youtube.com/watch?v=nkFSdtRw7tQ


right now, I think I've got every major song down except "dont say lazy" (which is the one song from the show that I don't really like), so if you guys want anything else tabbed out on guitar, let me know
it would be nice dude if you create a guitar pro tab version of this song so everyone can practice it with ease...

ps. this one would be nice http://www.youtube.com/watch?v=iIZfM...eature=related

p.s.part 2>> I was wondering if there is a guitar tab of "My Love is a Stapler" AFAIK that is the song that they use when Asu-nyan is depressed and want to leave the keionbu...
__________________

Last edited by Shuin_Zwei; 2009-06-10 at 09:49.
Shuin_Zwei is offline   Reply With Quote
Old 2009-06-11, 00:14   Link #31
GNneko
Junior Member
 
Join Date: Jun 2009
Quote:
Originally Posted by rockmanxpr View Post
Just curious if anyone is interested in drums for the other songs from the show?
I want~ =D the drums for the song "Fuwa Fuwa Times" please~
GNneko is offline   Reply With Quote
Old 2009-06-11, 00:48   Link #32
SaintessHeart
Ehh? EEEEHHHHHH?
 
 
Join Date: Nov 2007
Age: 25
The drums are pretty straightforward. The more complex ones are Fuwa Fuwa and Happy?Sorry! in which they have double-pedals. Some of the doublepedals are sometimes questionable (for Fuwa Fuwa it is around the part which Mio starts singing).
__________________

When three puppygirls named after pastries are on top of each other, it is called Eclair a'la menthe et Biscotti aux fraises avec beaucoup de Ricotta sur le dessus.
Most of all, you have to be disciplined and you have to save, even if you hate our current financial system. Because if you don't save, then you're guaranteed to end up with nothing.
SaintessHeart is offline   Reply With Quote
Old 2009-06-14, 02:24   Link #33
nighthex
Junior Member
 
Join Date: Jun 2009
Quote:
Originally Posted by rockmanxpr View Post
Since not many drummer post drums, hell not even in midi I'd figure to contribute.

OK here's the lowdown, I went ahead and transcribe to the best of my abilities the drums for Don't Say Lazy by listening to the Karaoke version (thank god for that cuz no vocals means easier to listen to the drums). using Pro Tools and a midi controller to input the notes, i tried to get the right fills in but some are not there, however the grooved and drive is there for all to practice with. After writing the midi I used EZdrummer to give it a more "realistic" sound to it and that's there is to it! later I'll work on the fills to complete and also post the midi file for anyone to tweak with

meantime here is a Yousendit file of the drums MP3

https://www.yousendit.com/download/M...RndlM1NGa1E9PQ
link is dead,care to upload? thanks
nighthex is offline   Reply With Quote
Old 2009-06-14, 15:14   Link #34
rockmanxpr
Senior Member
 
 
Join Date: May 2009
Quote:
Originally Posted by nighthex View Post
link is dead,care to upload? thanks
Working on Fuwa Fuwa time now, also gonna touch up on some fill for Lazy, be done in couple of days
rockmanxpr is offline   Reply With Quote
Old 2009-06-16, 03:46   Link #35
rockmanxpr
Senior Member
 
 
Join Date: May 2009
OK as promised!

here is a better version of Don't Say Lazy drums
https://download.yousendit.com/UmNKM25EMGM0b0JMWEE9PQ

And here is Fuwa fuwa Time
https://download.yousendit.com/UmNKM25GT01Fd2VGa1E9PQ

OK this one was kind of a pain, one the ending is probably not exactly correct because it was a retarding ending. So if any real drummers out there that know how to work with midi, please you can fix it when I put up the midi file.
The other issue was the actual recording, at about 2:30 (after the guitar solo) there was added time that screwed my timing up because I had made the tempo map of the whole song at 180 bpm so I had took out this added time and it still lines up. its minor but if you're comparing it to the real song you'll hear the difference

Both songs have a 8 beat countoff and in Fuwa I did put in some cymbals for counting during the "dead" drum time. The links will be up for 7 days
rockmanxpr is offline   Reply With Quote
Old 2009-06-18, 15:58   Link #36
Mandrill
Junior Member
 
Join Date: Jun 2009
Quote:
Originally Posted by Shuin_Zwei View Post

p.s.part 2>> I was wondering if there is a guitar tab of "My Love is a Stapler" AFAIK that is the song that they use when Asu-nyan is depressed and want to leave the keionbu...
Code:
Tuning: Standard

| /  slide up
| \  slide down
| h  hammer-on
| p  pull-off
| ~  vibrato
| +  harmonic
| x  Mute note
| *  Palm mute

Disclaimer: I don't follow all the strumming patterns of the original song. This tab is for how I played it.

video is here for reference: http://www.youtube.com/watch?v=DuKzIrKVbQE


Intro

add vibrato where you want

e|---------------------------------------------------------------|
B|---6-5---13~~~15-13-11-------------------------13-13-13--------|
G|-----5------------------14-12--14-15-14------------------------|
D|-----5---------------------------------------------------------|
A|----------------------------------------15---------------------|
E|---------------------------------------------------------------|

e|---------------------------------------------------------------|
B|--------6/13~~~15-13-11----------------------------------------|
G|------------------------14-12--12--12-15-14----12--------------|
D|--------------------------------------------15-----------------|
A|---------------------------------------------------------------|
E|---------------------------------------------------------------|


Verse
           *****               *****
e|--------------------------------------4--5--44---------------------------------------|
B|--------------------------------------5--6--55---------------------------------------|
G|-----------------------55-5--55555-5--6--7--66--7-77777--5-555555--3-33333--5-555555-|
D|-------3-33333-3--5--7-55-5--55555-5--6--7--66--7-77777--5-555555--3-33333--5-555555-|
A|-------3-33333-3--5--7-33-3--33333-3--4--5--44--5-55555--3-333333--1-11111--3-333333-|
E|-/16\--1-11111-1--3--5---------------------------------------------------------------|

           *****               *****
e|--------------------------------------4--5--44---------------------------------------|
B|--------------------------------------5--6--55---------------------------------------|
G|-----------------------55-5--55555-5--6--7--66--7-77777--5-555555--3-33333--5-555555-|
D|-------3-33333-3--5--7-55-5--55555-5--6--7--66--7-77777--5-555555--3-33333--5-555555-|
A|-------3-33333-3--5--7-33-3--33333-3--4--5--44--5-55555--3-333333--1-11111--3-333333-|
E|-------1-11111-1--3--5---------------------------------------------------------------|


Prechorus

       **   **   *   **   **   *    **   **   *    **   **   *
e|---------------------------------------------------------------|
B|---------------------------------------------------------------|
G|---3-33-3-33-3-3-3-33-3-33-3-3-----------------7-77-7-77-7-7---|
D|---3-33-3-33-3-3-3-33-3-33-3-3--7-77-7-77-7-7--7-77-7-77-7-7---|
A|---1-11-1-11-1-1-1-11-1-11-1-1--7-77-7-77-7-7--5-55-5-55-5-5---|
E|--------------------------------5-55-5-55-5-5------------------|

       **   **   *   **   **   *     **   **   *
e|----------------------------------------------------|
B|----------------------------------------------------|
G|---3-33-3-33-3-3-3-33-3-33-3-3---5-55-5-55-5-5-5----|
D|---3-33-3-33-3-3-3-33-3-33-3-3---5-55-5-55-5-5-5----|
A|---1-11-1-11-1-1-1-11-1-11-1-1---3-33-3-33-3-3-3----|
E|----------------------------------------------------|


Chorus

fast strumming

e|---------------------------------------------------------------
B|---------------------------------------------------------------
G|----------------------------------7-7-777777-77-5-5-555555-55--
D|------3-3-333333-33-7-7-777777-77-7-7-777777-77-5-5-555555-55--
A|------3-3-333333-33-7-7-777777-77-5-5-555555-55-3-3-333333-33--
E|-/16\-1-1-111111-11-5-5-555555-55------------------------------

-----------------------------------------------------------------|
-----------------------------------------------------------------|
--3-3-333333-33-----------------------------5-5-555555-55--------|
--3-3-333333-33-7-7-777777-77-5-5-555555-55-5-5-555555-55--------|
--1-1-111111-11-7-7-777777-77-5-5-555555-55-3-3-333333-33--------|
----------------5-5-555555-55-3-3-333333-33----------------------|


e|---------------------------------------------------------------
B|---------------------------------------------------------------
G|----------------5-5-55-6-6-66-7-7-777777-77-8-8-888888-88------
D|--3-3-333333-33-5-5-55-6-6-66-7-7-777777-77-8-8-888888-88------
A|--3-3-333333-33-3-3-33-4-4-44-5-5-555555-55-6-6-666666-66------
E|--1-1-111111-11------------------------------------------------

-----------------------------------------------------------------|
-----------------------------------------------------------------|
------------------------------3-3-333333-33--5-------------------|
--5-5-555555-55-7-7-777777-77-3-3-333333-33--5-------------------|
--5-5-555555-55-7-7-777777-77-1-1-111111-11--3-------------------|
--3-3-333333-33-5-5-555555-55------------------------------------|


Bridge

Here I opted not to play the bass notes but they're not too hard
to figure out if you decide to play them.

e|-------------------------1-3-4-5---------------0---------------|
B|---6-5------6-5----------1-3-4-5---6-5---------1---------------|
G|-------5--------5----5-5---------------5----3--0---------------|
D|--------------------------------------------3--2---------------|
A|--------------------------------------------1--3---------------|
E|---------------------------------------------------------------|


Outro

e|---------------------------------------------------------------|
B|------6/13~~~15-13-11-------------------------13-13-13---------|
G|-----------------------14-12--14-15-14-------------------------|
D|---------------------------------------------------------------| play 2x
A|---------------------------------------15----------------------|
E|---------------------------------------------------------------|


e|---------------------------------------------------------------|
B|--------6/13~~~15-13-11-----------------------------20---------|
G|------------------------14-12--12--12-15-14----12--------------|
D|--------------------------------------------15-----------------|
A|---------------------------------------------------------------|
It's quite easy to understand.
Just listen to the song and rhytm
Mandrill is offline   Reply With Quote
Old 2009-06-19, 18:05   Link #37
Tismigget
Junior Member
 
Join Date: Jun 2009
Location: The Netherlands
Quote:
Originally Posted by Shuin_Zwei View Post
it would be nice dude if you create a guitar pro tab version of this song so everyone can practice it with ease...

ps. this one would be nice http://www.youtube.com/watch?v=iIZfM...eature=related

I happen to have some tabs of this guy. I just quickly tabbed the different parts so I could print them.
These are the ones i tabbed:
Cagayake!GIRLS(guitar):http://www.youtube.com/watch?v=VMbwQaVWo0g
Don't say "Lazy"(guitar):http://www.youtube.com/watch?v=VnIAjzUjP2g
Fuwa Fuwa Time(guitar):http://www.youtube.com/watch?v=iIZfMXrrgw0
Fuwa Fuwa Time(bass):http://www.youtube.com/watch?v=pNcxE9iSDaM

You can download them here: http://www.megaupload.com/?d=8SIH8HBJ

They're just simple tabs, the part numbers correspond to the order in which they are shown in the videos.

PS: Don't ask about all the japanese stuff that's shown during the video, I have no idea what it's all supposed to mean.
Tismigget is offline   Reply With Quote
Old 2009-06-19, 23:29   Link #38
Le Zeep
lazy cartoonist
 
 
Join Date: Jun 2009
Location: at a dimly lit drawing table
Can we get some bass tabs on here? Or even just sheet music? I would be very glad :3
Le Zeep is offline   Reply With Quote
Old 2009-06-20, 02:02   Link #39
rockmanxpr
Senior Member
 
 
Join Date: May 2009
As you know I did the drums for some of the songs, right now I'm trying my hand at recording engineering and that includes mixing. if anyone here has the guitars or bass or key or even drums tracked properly send em over to me and I'll give it a proper mix. Just looking for more experience and some fun in the process!
rockmanxpr is offline   Reply With Quote
Old 2009-06-20, 11:09   Link #40
Shuin_Zwei
Guitar Newbie
 
 
Join Date: Jun 2008
Location: Shizuoka, Japan
Send a message via Yahoo to Shuin_Zwei
@Mandrill & Tismigget

thanks guys for the help I really appreciate it thanks again ^^ I will practice this song!
__________________
Shuin_Zwei is offline   Reply With Quote
Reply

Thread Tools

Posting Rules
You may not post new threads
You may not post replies
You may not post attachments
You may not edit your posts

BB code is On
Smilies are On
[IMG] code is On
HTML code is Off

Forum Jump


All times are GMT -5. The time now is 12:20.


Powered by vBulletin® Version 3.8.7
Copyright ©2000 - 2014, vBulletin Solutions, Inc.
We use Silk.