AnimeSuki Forums

Register Forum Rules FAQ Members List Social Groups Search Today's Posts Mark Forums Read

Go Back   AnimeSuki Forum > Anime Discussion > Older Series > Retired > K-On!

Notices

Reply
 
Thread Tools
Old 2009-06-20, 14:47   Link #41
jaziek
Does an elope taste good?
 
 
Join Date: May 2007
I'm going to disagree with that dont say lazy video to an extent.
I play full powerchords instead of just the 2 strings, and also I play the E5 / F5 an octave lower for the verse / bridge bit.

everything else seems pretty much the same as the way I do it though. Although I to strum to the beat on the chorus rather than just let the chords ring.
__________________
jaziek is offline   Reply With Quote
Old 2009-06-21, 07:16   Link #42
MishaChan
Junior Member
 
Join Date: Jun 2009
I would like to have the Drums of Sweet and Bitter Beauty Song(I don't know if I spelled that right).

I also would like to know the chords Asuza-chan plays with the song ''Fuwa Fuwa Time''.

And also thank you very much everyone for already posting this many drums and chords, they're really useful.^^
MishaChan is offline   Reply With Quote
Old 2009-06-21, 11:03   Link #43
Mercurius
Member
 
 
Join Date: Jan 2006
~Fude Pen Boru Pen Tab by Hakoria. Video reference here.

It looks and sounds pretty close. Can't wait to get home to try it out.
Mercurius is offline   Reply With Quote
Old 2009-06-23, 13:17   Link #44
Tismigget
Junior Member
 
Join Date: Jun 2009
Location: The Netherlands
Does anyone have an idea on the (guitar) tab for "falling reinforced concrete"? It's track 16 on the OST. reference: http://www.youtube.com/watch?v=VwTqKYM7pLg

I think the intro for the rhythm guitar is something like this:
http://www.megaupload.com/?d=M2J2POGI

I'm still working on it, but all help is welcome
Tismigget is offline   Reply With Quote
Old 2009-06-23, 17:11   Link #45
Willow
Junior Member
 
 
Join Date: Jun 2009
I'm gonna try Tsubasa wo Kudasai first then Brush and Ballpoint Pen. Oh speaking of Brush and Ballpoint Pen XD Does someone have sheet music (for keyboard) for this song?

I'm pretty sure there's a lot of sheet music for Tsubasa wo Kudasai.
Willow is offline   Reply With Quote
Old 2009-06-23, 17:21   Link #46
Tismigget
Junior Member
 
Join Date: Jun 2009
Location: The Netherlands
Quote:
Originally Posted by Willow View Post
I'm gonna try Tsubasa wo Kudasai first then Brush and Ballpoint Pen. Oh speaking of Brush and Ballpoint Pen XD Does someone have sheet music (for keyboard) for this song?

I'm pretty sure there's a lot of sheet music for Tsubasa wo Kudasai.
you can find sheet music for keyboard on this site:
http://josh.agarrado.net/music/anime/
Just scroll down for a bit. (Tsubasa wo Kudasai is there too)
Tismigget is offline   Reply With Quote
Old 2009-06-23, 18:17   Link #47
Willow
Junior Member
 
 
Join Date: Jun 2009
Mm, thanks. I got Tsubasa wo Kudasai from there ^^, No Brush and Ballpoint Pen though :<
Willow is offline   Reply With Quote
Old 2009-06-25, 08:29   Link #48
Wes Craven
Junior Member
 
 
Join Date: Apr 2009
Location: Austria
Does Anyone has some Bass Tabs for ANY of their songs?
Wes Craven is offline   Reply With Quote
Old 2009-06-25, 10:18   Link #49
RhapsodyInBlue
lolwut?
 
 
Join Date: Apr 2009
Location: qwerty
Quote:
Originally Posted by Wes Craven View Post
Does Anyone has some Bass Tabs for ANY of their songs?
Cagayake! Girls bass tab.
http://www.youtube.com/watch?v=pIoOm-V0HHA&fmt=18
There's tons of vids in youtube which includes tabs. The tabs for the other songs shouldn't be hard to find.
__________________
Oh damn...
RhapsodyInBlue is offline   Reply With Quote
Old 2009-06-28, 11:52   Link #50
Kisaki
Junior Member
 
 
Join Date: Jun 2009
Location: Canada
Hey guys
was wondering if anyone able to tab this song out Thanks ^^
it was cover by a guy in nicovideo. =)

http://www.youtube.com/watch?v=G6b06...e=channel_page

Hold on to Your Love ( Original Soundtrack - Track 15 )

i think it's in episode 4 or 5 insert BGM for Sawako-sensei Flashback
__________________
- Honto ni ? honto honto ni ? =D

Last edited by Kisaki; 2009-06-28 at 16:54.
Kisaki is offline   Reply With Quote
Old 2009-06-28, 14:47   Link #51
thearchangel92
Junior Member
 
Join Date: Jun 2009
Can anyone post the My Love Is A Stapler singing tabs for the guitar
It would be much appericiated =)
thearchangel92 is offline   Reply With Quote
Old 2009-07-02, 00:39   Link #52
Shuin_Zwei
Guitar Newbie
 
 
Join Date: Jun 2008
Location: Shizuoka, Japan
Send a message via Yahoo to Shuin_Zwei
Quote:
Originally Posted by thearchangel92 View Post
Can anyone post the My Love Is A Stapler singing tabs for the guitar
It would be much appericiated =)
there is just backread and you will see it...

p.s. guys those who have a guitar tabs of fuwafuwa time can someone post it? I seem don't like the video one I like the tab on notepad or any other program...
__________________
Shuin_Zwei is offline   Reply With Quote
Old 2009-07-02, 03:49   Link #53
Tismigget
Junior Member
 
Join Date: Jun 2009
Location: The Netherlands
Quote:
Originally Posted by Shuin_Zwei View Post
there is just backread and you will see it...

p.s. guys those who have a guitar tabs of fuwafuwa time can someone post it? I seem don't like the video one I like the tab on notepad or any other program...
you can find a guitar pro 5 version here: http://www.megaupload.com/?d=8SIH8HBJ

And here's the notepad version:

Code:
Track 1
     Part 1                                             
     H        E  E  E  E       E  E  E  E  E  E  E  E   
E||-----------------------||---------------------------|
B||-----------------------||---------------------------|
G||-----------------------||*--9--9--9--9--9-----9--9--|
D||-----------------------||*--9--9--9--9--9-----9--9--|
A||--------------7--7--7--||---7--7--7--7--7-----7--7--|
E||-----------------------||---------------------------|


                              Part 2                                            
  E  E  Q    E  E  E  E       Q      E  E  E  E  Q       Q    E  E  E  E  Q     
--------------------------||--------------------------|------------------------|
--------------------------||--------------------------|------------------------|
--2--2--2----4--4--4--4--*||--------------------------|------------------------|
--2--2--2----4--4--4--4--*||--9------------------9----|------------------------|
--0--0--0----2--2--2--2---||--7------7--7--7--7--7----|--7----------------7----|
--------------------------||--------------------------|--5----5--5--5--5--5----|


  Q    E  E  E  E  E  E     E  E  E  E  E  E  E  E     Q    E  E  E  E  Q     
-------------------------|--------------------------|------------------------|
-------------------------|--------------------------|------------------------|
-------------------------|--------------------------|------------------------|
--9----------x--9--x--9--|--L--9--x--9--9--9--9--9--|--6----------------6----|
--7----7--7--x--7--x--7--|--L--7--x--7--6--6--6--6--|--4----4--4--4--4--4----|
-------------------------|--------------------------|------------------------|


  Q    E  E  E  E  Q       Q    E  E  E  E  Q       E  E  H.            
------------------------|------------------------|---------------------|
------------------------|------------------------|---------------------|
------------------------|------------------------|---------------------|
------------------------|------------------------|---------------------|
--7----------------7----|--9----------------9----|--------9------------|
--5----5--5--5--5--5----|--7----7--7--7--7--7----|--x--x--7------------|


  Part 3                                                          
  W                   E  E  E  E  H           H.           E  E   
-------------------|-----------------------|---------------------|
-------------------|-----------------------|---------------------|
-------------------|-----------------------|---------------------|
-------------------|-----------------------|---------------------|
--7----------------|-----7-----7--L--------|--6---------------6--|
--5----------------|--x--5--x--5--L--------|--4------------x--4--|


  E  E  E  E  H           Q.     E  H           W                 
-----------------------|---------2--L--------|-------------------|
-----------------------|---------2--L--------|--4----------------|
-----------------------|---------2--L--------|--4----------------|
-----------------------|--4------4--L--------|--4----------------|
-----6-----6--L--------|--4------------------|--2----------------|
--x--4--x--4--L--------|--2------------------|-------------------|


  H        E  E  E   E      E   E  E  E  H           H.           E  E   
------------------------|-------------------------|---------------------|
--------------------10--|---L--10-----9--L--------|---------------------|
--9-----------9------9--|---L---9-----9--L--------|---------------------|
--9-----------9------9--|---L---9-----9--L--------|---------------------|
--7--------x--7--x---7--|---L---7--x--7--L--------|--7---------------7--|
------------------------|-------------------------|--5------------x--5--|


  E  E  E  E  H           W                   W                 
-----------------------|-------------------|-------------------|
-----------------------|-------------------|-------------------|
-----------------------|-------------------|-------------------|
-----------------------|-------------------|--6----------------|
-----7-----7--L--------|--7----------------|--4----------------|
--x--5--x--5--L--------|--4----------------|-------------------|


  W                   W                   E  E  E  E  E  E  E  E   
-------------------|-------------------|--------------------------|
-------------------|-------------------|--------------------------|
-------------------|-------------------|--------------------------|
-------------------|-------------------|--------------------------|
--4----------------|--9----------------|--9--------9--------9-----|
--2----------------|--6----------------|--7-----x--7-----x--7-----|


                          Part 4                                
  E  E  Q    Q    Q       W                   W                 
-----------------------|-------------------|-------------------|
-----------------------|-------------------|-------------------|
-------------6----9----|--9----------------|--2----------------|
-------------4----6----|--9----------------|--2----------------|
-----9--9--------------|--7----------------|--0----------------|
--x--7--7--------------|-------------------|-------------------|


  W                   W                   W                   W                 
-------------------|-------------------|-------------------|-------------------|
-------------------|-------------------|-------------------|-------------------|
--4----------------|--5----------------|--6----------------|--2----------------|
--4----------------|--6----------------|--6----------------|--2----------------|
--2----------------|--3----------------|--4----------------|--0----------------|
-------------------|-------------------|-------------------|-------------------|


  W                   E  E  Q    Q    Q       W                 
-------------------|-----------------------|-------------------|
-------------------|-----------------------|-------------------|
-------------------|--------4--------------|--9----------------|
--4----------------|--------4----6----9----|--9----------------|
--4----------------|--x--x--2----4----6----|--7----------------|
--2----------------|-----------------------|-------------------|


  W                   W                   W                   W                 
-------------------|-------------------|-------------------|-------------------|
-------------------|-------------------|-------------------|-------------------|
--2----------------|--4----------------|--5----------------|--6----------------|
--2----------------|--4----------------|--6----------------|--6----------------|
--0----------------|--2----------------|--3----------------|--4----------------|
-------------------|-------------------|-------------------|-------------------|


                         Part 5                       
  H        H             E      E  E  E  E  E  E  E   
--------------------||-------------------------------|
--------------------||-------------------------------|
--2--------4--------||*--9------9--9--9--9-----9--9--|
--2--------4--------||*--9------9--9--9--9-----9--9--|
--0--------2--------||---7------7--7--7--7-----7--7--|
--------------------||-------------------------------|


  E  E  Q    E  E  E  E       E  E  E  E  E  E  Q       E  E  Q    E  E  Q     
--------------------------||-------------------------|------------------------|
--------------------------||-------------------------|------------------------|
--2--2--2----4--4--4--4--*||-------------------------|------------------------|
--2--2--2----4--4--4--4--*||--9--9--9--9--9-----9----|--2--2-------4--4-------|
--0--0--0----2--2--2--2---||--7--7--7--7--7-----7----|--0--0-------2--2-------|
--------------------------||-------------------------|------------------------|


                                    |----3----|                          
  W                   E   S S E  E  Q    Q    Q       W                  
-------------------|-------------------------------|-------------------||
-------------------|-------------------------------|-------------------||
-------------------|--2b--2-0----------------------|-------------------||
-------------------|----------2--0-----------------|-------------------||
--2----------------|----------------2----0---------|--2----------------||
--0----------------|--------------------------3----|--0----------------||




Duration Legend
---------------
W - whole
H - half
Q - quarter
E - 8th
S - 16th
T - 32nd
X - 64th
. - note dotted
|-n-|  - n-tuplets


Tablature Legend
----------------
L - tied note
x - dead note
g - grace note
(n) - ghost note
> - accentuded note
NH - natural harmonic
AH - artificial harmonic
TH - tapped harmonic
SH - semi harmonic
PH - pitch harmonic
h - hammer on
p - pull off
b - bend
br - bendRelease
pb - preBend
pbr - preBendRelease
brb - bendReleaseBend
\n/ - tremolo bar dip
\n - tremolo bar dive
-/n - tremolo bar Release up
/n\ - tremolo bar inverted dip
/n - tremolo bar return
-\n - tremolo bar Release down
S - shift slide
s - legato slide
/ -  slide into from below or out of upwards
\ -  slide into from above or out of downwards
~ - vibrato
W - wide vibrato
tr - trill
TP - tremolo picking
T - tapping
S - slap
P - pop
< - fade in
^ - brush up
v - brush down
Tismigget is offline   Reply With Quote
Old 2009-07-02, 08:02   Link #54
Shuin_Zwei
Guitar Newbie
 
 
Join Date: Jun 2008
Location: Shizuoka, Japan
Send a message via Yahoo to Shuin_Zwei
Quote:
Originally Posted by Tismigget View Post
you can find a guitar pro 5 version here: http://www.megaupload.com/?d=8SIH8HBJ

And here's the notepad version:

Code:
Track 1
     Part 1                                             
     H        E  E  E  E       E  E  E  E  E  E  E  E   
E||-----------------------||---------------------------|
B||-----------------------||---------------------------|
G||-----------------------||*--9--9--9--9--9-----9--9--|
D||-----------------------||*--9--9--9--9--9-----9--9--|
A||--------------7--7--7--||---7--7--7--7--7-----7--7--|
E||-----------------------||---------------------------|


                              Part 2                                            
  E  E  Q    E  E  E  E       Q      E  E  E  E  Q       Q    E  E  E  E  Q     
--------------------------||--------------------------|------------------------|
--------------------------||--------------------------|------------------------|
--2--2--2----4--4--4--4--*||--------------------------|------------------------|
--2--2--2----4--4--4--4--*||--9------------------9----|------------------------|
--0--0--0----2--2--2--2---||--7------7--7--7--7--7----|--7----------------7----|
--------------------------||--------------------------|--5----5--5--5--5--5----|


  Q    E  E  E  E  E  E     E  E  E  E  E  E  E  E     Q    E  E  E  E  Q     
-------------------------|--------------------------|------------------------|
-------------------------|--------------------------|------------------------|
-------------------------|--------------------------|------------------------|
--9----------x--9--x--9--|--L--9--x--9--9--9--9--9--|--6----------------6----|
--7----7--7--x--7--x--7--|--L--7--x--7--6--6--6--6--|--4----4--4--4--4--4----|
-------------------------|--------------------------|------------------------|


  Q    E  E  E  E  Q       Q    E  E  E  E  Q       E  E  H.            
------------------------|------------------------|---------------------|
------------------------|------------------------|---------------------|
------------------------|------------------------|---------------------|
------------------------|------------------------|---------------------|
--7----------------7----|--9----------------9----|--------9------------|
--5----5--5--5--5--5----|--7----7--7--7--7--7----|--x--x--7------------|


  Part 3                                                          
  W                   E  E  E  E  H           H.           E  E   
-------------------|-----------------------|---------------------|
-------------------|-----------------------|---------------------|
-------------------|-----------------------|---------------------|
-------------------|-----------------------|---------------------|
--7----------------|-----7-----7--L--------|--6---------------6--|
--5----------------|--x--5--x--5--L--------|--4------------x--4--|


  E  E  E  E  H           Q.     E  H           W                 
-----------------------|---------2--L--------|-------------------|
-----------------------|---------2--L--------|--4----------------|
-----------------------|---------2--L--------|--4----------------|
-----------------------|--4------4--L--------|--4----------------|
-----6-----6--L--------|--4------------------|--2----------------|
--x--4--x--4--L--------|--2------------------|-------------------|


  H        E  E  E   E      E   E  E  E  H           H.           E  E   
------------------------|-------------------------|---------------------|
--------------------10--|---L--10-----9--L--------|---------------------|
--9-----------9------9--|---L---9-----9--L--------|---------------------|
--9-----------9------9--|---L---9-----9--L--------|---------------------|
--7--------x--7--x---7--|---L---7--x--7--L--------|--7---------------7--|
------------------------|-------------------------|--5------------x--5--|


  E  E  E  E  H           W                   W                 
-----------------------|-------------------|-------------------|
-----------------------|-------------------|-------------------|
-----------------------|-------------------|-------------------|
-----------------------|-------------------|--6----------------|
-----7-----7--L--------|--7----------------|--4----------------|
--x--5--x--5--L--------|--4----------------|-------------------|


  W                   W                   E  E  E  E  E  E  E  E   
-------------------|-------------------|--------------------------|
-------------------|-------------------|--------------------------|
-------------------|-------------------|--------------------------|
-------------------|-------------------|--------------------------|
--4----------------|--9----------------|--9--------9--------9-----|
--2----------------|--6----------------|--7-----x--7-----x--7-----|


                          Part 4                                
  E  E  Q    Q    Q       W                   W                 
-----------------------|-------------------|-------------------|
-----------------------|-------------------|-------------------|
-------------6----9----|--9----------------|--2----------------|
-------------4----6----|--9----------------|--2----------------|
-----9--9--------------|--7----------------|--0----------------|
--x--7--7--------------|-------------------|-------------------|


  W                   W                   W                   W                 
-------------------|-------------------|-------------------|-------------------|
-------------------|-------------------|-------------------|-------------------|
--4----------------|--5----------------|--6----------------|--2----------------|
--4----------------|--6----------------|--6----------------|--2----------------|
--2----------------|--3----------------|--4----------------|--0----------------|
-------------------|-------------------|-------------------|-------------------|


  W                   E  E  Q    Q    Q       W                 
-------------------|-----------------------|-------------------|
-------------------|-----------------------|-------------------|
-------------------|--------4--------------|--9----------------|
--4----------------|--------4----6----9----|--9----------------|
--4----------------|--x--x--2----4----6----|--7----------------|
--2----------------|-----------------------|-------------------|


  W                   W                   W                   W                 
-------------------|-------------------|-------------------|-------------------|
-------------------|-------------------|-------------------|-------------------|
--2----------------|--4----------------|--5----------------|--6----------------|
--2----------------|--4----------------|--6----------------|--6----------------|
--0----------------|--2----------------|--3----------------|--4----------------|
-------------------|-------------------|-------------------|-------------------|


                         Part 5                       
  H        H             E      E  E  E  E  E  E  E   
--------------------||-------------------------------|
--------------------||-------------------------------|
--2--------4--------||*--9------9--9--9--9-----9--9--|
--2--------4--------||*--9------9--9--9--9-----9--9--|
--0--------2--------||---7------7--7--7--7-----7--7--|
--------------------||-------------------------------|


  E  E  Q    E  E  E  E       E  E  E  E  E  E  Q       E  E  Q    E  E  Q     
--------------------------||-------------------------|------------------------|
--------------------------||-------------------------|------------------------|
--2--2--2----4--4--4--4--*||-------------------------|------------------------|
--2--2--2----4--4--4--4--*||--9--9--9--9--9-----9----|--2--2-------4--4-------|
--0--0--0----2--2--2--2---||--7--7--7--7--7-----7----|--0--0-------2--2-------|
--------------------------||-------------------------|------------------------|


                                    |----3----|                          
  W                   E   S S E  E  Q    Q    Q       W                  
-------------------|-------------------------------|-------------------||
-------------------|-------------------------------|-------------------||
-------------------|--2b--2-0----------------------|-------------------||
-------------------|----------2--0-----------------|-------------------||
--2----------------|----------------2----0---------|--2----------------||
--0----------------|--------------------------3----|--0----------------||




Duration Legend
---------------
W - whole
H - half
Q - quarter
E - 8th
S - 16th
T - 32nd
X - 64th
. - note dotted
|-n-|  - n-tuplets


Tablature Legend
----------------
L - tied note
x - dead note
g - grace note
(n) - ghost note
> - accentuded note
NH - natural harmonic
AH - artificial harmonic
TH - tapped harmonic
SH - semi harmonic
PH - pitch harmonic
h - hammer on
p - pull off
b - bend
br - bendRelease
pb - preBend
pbr - preBendRelease
brb - bendReleaseBend
\n/ - tremolo bar dip
\n - tremolo bar dive
-/n - tremolo bar Release up
/n\ - tremolo bar inverted dip
/n - tremolo bar return
-\n - tremolo bar Release down
S - shift slide
s - legato slide
/ -  slide into from below or out of upwards
\ -  slide into from above or out of downwards
~ - vibrato
W - wide vibrato
tr - trill
TP - tremolo picking
T - tapping
S - slap
P - pop
< - fade in
^ - brush up
v - brush down
sweet dude thanks

p.s.
I currently practicing Watashi no Koi wa hochikisu but it seems I cant do the chords with p.m. after the intro any advice? I need them to proceed T_T
__________________

Last edited by Shuin_Zwei; 2009-07-03 at 04:23.
Shuin_Zwei is offline   Reply With Quote
Old 2009-07-03, 09:25   Link #55
Tismigget
Junior Member
 
Join Date: Jun 2009
Location: The Netherlands
Quote:
p.s.
I currently practicing Watashi no Koi wa hochikisu but it seems I cant do the chords with p.m. after the intro any advice? I need them to proceed T_T
Palm muting is something that takes time to get used to.
If you search for "palm mute" or "palm muting" on google or youtube, you'll find lots of explanations, tutorials and videos to help you out.

Important things to remember are:
-use the side of the palm, not the palm itself.
-placement: somewhere close to the bridge. If you move further away from the bridge the sound will get more muted.
-apply light pressure. If you press too hard, the strings will be completely muted.
-practice. it takes time to find a comfortable positions for your muting hand.

If you're not sure if your mutes sound right, you can use youtube videos as reference.

p.s.

I'm not a palm muting expert. Some/all of you may disagree with the above. Feel free to comment or to add something to help us out
Tismigget is offline   Reply With Quote
Old 2009-07-03, 11:49   Link #56
Tismigget
Junior Member
 
Join Date: Jun 2009
Location: The Netherlands
Quote:
Originally Posted by Kisaki View Post
Hey guys
was wondering if anyone able to tab this song out Thanks ^^
it was cover by a guy in nicovideo. =)

http://www.youtube.com/watch?v=G6b06...e=channel_page

Hold on to Your Love ( Original Soundtrack - Track 15 )

i think it's in episode 4 or 5 insert BGM for Sawako-sensei Flashback
You can try to tab it by watching that video. Here's the first bit of what the guy in the video is playing:
Code:
     E   E  E  E   Q     E   Q.     E  E  H.           E  E   W.                
E||----------------------------------------------------------------------------|
B||---------9--8---------------------------------------------------------------|
G||---------------10-----------------------------------------------------------|
D||-----10--------------10--10------8--6--8------------6--8--10----------------|
A||----------------------------------------------------------------------------|
E||----------------------------------------------------------------------------|
I might tab the whole song later, I'm a bit short on time atm
Tismigget is offline   Reply With Quote
Old 2009-07-03, 17:26   Link #57
Kisaki
Junior Member
 
 
Join Date: Jun 2009
Location: Canada
if your able to do the whole song that'll be awesome

thanks
__________________
- Honto ni ? honto honto ni ? =D
Kisaki is offline   Reply With Quote
Old 2009-07-04, 10:26   Link #58
Shuin_Zwei
Guitar Newbie
 
 
Join Date: Jun 2008
Location: Shizuoka, Japan
Send a message via Yahoo to Shuin_Zwei
Quote:
Originally Posted by Tismigget View Post
Palm muting is something that takes time to get used to.
If you search for "palm mute" or "palm muting" on google or youtube, you'll find lots of explanations, tutorials and videos to help you out.

Important things to remember are:
-use the side of the palm, not the palm itself.
-placement: somewhere close to the bridge. If you move further away from the bridge the sound will get more muted.
-apply light pressure. If you press too hard, the strings will be completely muted.
-practice. it takes time to find a comfortable positions for your muting hand.

If you're not sure if your mutes sound right, you can use youtube videos as reference.

p.s.

I'm not a palm muting expert. Some/all of you may disagree with the above. Feel free to comment or to add something to help us out
thanks for the tips that was awesome... so palm mute is not a tech that would learn just in a day... I want to play hochikisu so badly still practicing on that if you have/found a good reference about palm muting please let me know other than that thank you very much
__________________
Shuin_Zwei is offline   Reply With Quote
Old 2009-07-05, 17:46   Link #59
Tismigget
Junior Member
 
Join Date: Jun 2009
Location: The Netherlands
This article pretty much sums it all up: http://guitar.about.com/library/weekly/aa062401b.htm

Palm muting is an important technique for use with power chords, especially in rock/punk so it's important you spend enough time on practicing it.
Good luck!
Tismigget is offline   Reply With Quote
Old 2009-07-06, 07:37   Link #60
Shuin_Zwei
Guitar Newbie
 
 
Join Date: Jun 2008
Location: Shizuoka, Japan
Send a message via Yahoo to Shuin_Zwei
Quote:
Originally Posted by Tismigget View Post
This article pretty much sums it all up: http://guitar.about.com/library/weekly/aa062401b.htm

Palm muting is an important technique for use with power chords, especially in rock/punk so it's important you spend enough time on practicing it.
Good luck!
damn! I though playing rock music escapes me from these kind of techniques oh well I guess I have to try it then

oh and I saw fude pen boru pen guitar video and it was awesome... K-on musics really great and really want me to play them

p.s. is there a guitar tab of any anime that can play even a beginner?
__________________
Shuin_Zwei is offline   Reply With Quote
Reply

Thread Tools

Posting Rules
You may not post new threads
You may not post replies
You may not post attachments
You may not edit your posts

BB code is On
Smilies are On
[IMG] code is On
HTML code is Off

Forum Jump


All times are GMT -5. The time now is 01:18.


Powered by vBulletin® Version 3.8.7
Copyright ©2000 - 2014, vBulletin Solutions, Inc.
We use Silk.