AnimeSuki Forums

Register Forum Rules FAQ Members List Social Groups Search Today's Posts Mark Forums Read

Go Back   AnimeSuki Forum > Anime Discussion > Older Series > Retired > K-On!

Notices

Reply
 
Thread Tools
Old 2010-07-11, 23:10   Link #421
Bear Detective
Junior Member
 
Join Date: Jul 2010
Does anyone know the name of the song Yui is playing by herself at the beginning of the first episode of season 2? Additionally are there any tabs, or even just the chords for it?

I really liked it and would like to learn it.
Bear Detective is offline   Reply With Quote
Old 2010-07-12, 01:08   Link #422
Marcus H.
Hunk o' Burning Love
 
 
Join Date: May 2009
Location: the Philippines
It's "Watashi no Koi wa Hocchikisu" or "My Love is a Stapler".
__________________
Marcus' Handpicked!
Summer 2014: Hanayamata, Rail Wars!, Rokujouma no Shinryakusha!?, Sabagebu!, Gekkan Shoujo Nozaki-kun and Hanamonogatari.
Spring 2014: No Game No Life, Date A Live II, Magica Wars, Fairy Tail and Isshukan Friends.


Contact me on Wikia, MyAnimeList and Hummingbird.
MyAnimeList Status|| Watching: 35. Completed: 208. Plan to watch: 35.

Marcus H. is offline   Reply With Quote
Old 2010-07-12, 02:00   Link #423
Bear Detective
Junior Member
 
Join Date: Jul 2010
Okay, thank you.
Bear Detective is offline   Reply With Quote
Old 2010-07-12, 04:16   Link #424
BlackKnightKanos
Lord of The Netherealm
 
 
Join Date: Jun 2010
Location: Philippines
Send a message via Yahoo to BlackKnightKanos
Quote:
Originally Posted by Bear Detective View Post
Does anyone know the name of the song Yui is playing by herself at the beginning of the first episode of season 2? Additionally are there any tabs, or even just the chords for it?

I really liked it and would like to learn it.
It's My Love is a Stapler. It's actually a pretty easy song. I think I made tabs for that song a while back. If I can find it I'll post it unless someone beats me to it.
BlackKnightKanos is offline   Reply With Quote
Old 2010-07-12, 16:45   Link #425
bloppyblue
SLEEP IS FOR THE WEAK!!!
 
 
Join Date: Feb 2007
Could someone please do a drum recording of Hold On Your Love from the OST?

http://www.youtube.com/watch?v=9MwoTFx4aHA
bloppyblue is offline   Reply With Quote
Old 2010-07-13, 02:15   Link #426
BlackKnightKanos
Lord of The Netherealm
 
 
Join Date: Jun 2010
Location: Philippines
Send a message via Yahoo to BlackKnightKanos
Quote:
Originally Posted by Bear Detective View Post
Does anyone know the name of the song Yui is playing by herself at the beginning of the first episode of season 2? Additionally are there any tabs, or even just the chords for it?

I really liked it and would like to learn it.
I got it!

"My Love is a Stapler" This is the song played in the first episode of Season 2. Enjoy!

Code:

E||-------------------------------|------------------------------------|
B||----3--3--3--3--3--3--3--3--3--|------------------------------------|
G||----2--2--2--2--2--2--2--2--2--|------------------2--3--3--3--2--2--|
D||----3--3--3--3--3--3--3--3--3--|--3--3--3--3--3---3--3--3--3--3--3--|
A||-1--1--1--1--1--1--1--1--1--1--|--3--3--1--3--3---1--1--1--1--1--1--|
E||-------------------------------|--1--1--1--1--1---------------------|

E||------------------------------------------------------|
B||-3--3--3--3--3--3--3--3--3----------------------------|
G||-2--2--2--2--2--2--2--2--2---5--5--5--5--5--5--5--5---|
D||-3--3--3--3--3--3--3--3--3---5--5--5--5--5--5--5--5---|
A||-1--1--1--1--1--1--1--1--1---3--3--3--3--3--3--3--3---|
E||------------------------------------------------------|

Verse:
E||-----------------|-----------------------------------------------------|
B||-----------------|------------6-6--------------------------------------|
G||-----------------|--2--3--5---5-5---5--5--5--5--5----6--7--6---9-9-----|
D||--3--3--3--3--3--|--3--5--7---------5--5--5--5--5----7--7--7---7-7-----|
A||--3--3--1--3--3--|------------------3--3--3--3--3----------------------|
E||--1--1--1--1--1--|-----------------------------------------------------|

E||-----------------------------------------------------------------|
B||-----------------------------------------------------------------|
G||--7--7--7--7- 7---5--5--5--5--5---3--3--3--3--3---5--5--5--5--5--|
D||--7--7--7--7--7---5--5--5--5--5---3--3--3--3--3---5--5--5--5--5--|
A||--5--5--5--5--5---3--3--3--3--3---1--1--1--1--1---3--3--3--5--3--|
E||-----------------------------------------------------------------|

Pre-Chorus:
E||--------------------------------------------------------------------------|
B||--------------------------------------------------------------------------|
G||----------------------------------------------------------7--7--7--7--7---|
D||--8--8--8--8--8--x-10--10-10--10--10---7--7--7--7--7--7---7--7--7--7--7---|
A||--8--8--8--8--8--x-10--10-10--10--10---7--7--7--7--7--7---5--5--5--5--5---|
E||--6--6--6--6--6--x-8---8--8---8---8----5--5--5--5--5--5-------------------|

E||--------------------------------------------------------------------|
B||--------------------------------------------------------------------|
G||--------------------------------------------------------------------|
D||--8--8--8--8--8--8--8--8--8---10--10--10--10-10--10--10--10---------|
A||--8--8--8--8--8--8--8--8--8---10--10--10--10-10--10--10--10---------|
E||--6--6--6--6--6--6--6--6--6---8---8---8---8--8---8---8---8----------|

Chorus:
E||--------------------------------------------------------------------------|
B||--------------------------------------------------------------------------|
G||-------------------5--5--5---6--6--6---7--7--7--7--7---8--8--8--8--8------|
D||--3--3--3--3--3----5--5--5---7- 7--7---7--7--7--7--7---7--7--7--7--7------|
A||--3--3--1--3--3----3--3--3---4--4--4---5--5--5--5--5---6--6--6--6--6------|
E||--1--1--1--1--1-----------------------------------------------------------|

E||-------------------------------------------------------------------|
B||-------------------------------------------------------------------|
G||-------------------------------------------------------------------|
D||--5------7-----8---------10------10------10------10------10--------|
A||--5-x5---7-x5--8-x5------10------10------10------10------10--------|
E||--3------5-----6---------8-------8-------8-------8-------8---------| 


Last edited by BlackKnightKanos; 2010-07-13 at 08:53.
BlackKnightKanos is offline   Reply With Quote
Old 2010-07-14, 04:55   Link #427
VEE
Senior Member
 
 
Join Date: May 2009
Send a message via MSN to VEE Send a message via Skype™ to VEE
It seemed that
'tsubasa wo kudasai' is used as Evangelion 2.0 soundtrack.

By megumi hayashibara- it's a slower version. But at least sounds more original, not bad.
VEE is offline   Reply With Quote
Old 2010-07-14, 22:36   Link #428
CadetPD
Member
 
 
Join Date: Jun 2009
Location: San Juan Bautista, California
Quote:
Originally Posted by VEE View Post
It seemed that
'tsubasa wo kudasai' is used as Evangelion 2.0 soundtrack.

By megumi hayashibara- it's a slower version. But at least sounds more original, not bad.

If I'm not mistaken, it's like a... popular folk song right?
CadetPD is offline   Reply With Quote
Old 2010-07-15, 10:19   Link #429
BlackKnightKanos
Lord of The Netherealm
 
 
Join Date: Jun 2010
Location: Philippines
Send a message via Yahoo to BlackKnightKanos
Anyone lookin' for "NO, Thank You!" tabs?
BlackKnightKanos is offline   Reply With Quote
Old 2010-07-15, 10:36   Link #430
[T]ensio[N]
Moe Moe Kyun~ <3
 
 
Join Date: Apr 2010
Location: California
Age: 19
Quote:
Originally Posted by blackknightkanos View Post
anyone lookin' for "no, thank you!" tabs?
thank you!!!
__________________
「No Thank You!!」
[T]ensio[N] is offline   Reply With Quote
Old 2010-07-15, 13:12   Link #431
shyezrylei
Intoxicated Guitarist
 
 
Join Date: Apr 2010
Location: Where music always plays!
Age: 24
Send a message via MSN to shyezrylei Send a message via Yahoo to shyezrylei
Quote:
Originally Posted by BlackKnightKanos View Post
Anyone lookin' for "NO, Thank You!" tabs?
Yeah thanks man! This is the best TAB of "No, Thank You!" I've seen yet.
__________________
Check me out at http://www.youtube.com/shyezrylei for *WTF* K-ON! Fandubs, Guitar Covers and such. Like, Comment and Subscribe.
shyezrylei is offline   Reply With Quote
Old 2010-07-15, 18:49   Link #432
Afternoon Tea
Ta~Da!!
*Artist
 
 
Join Date: Mar 2010
Location: Illinois, United States
Age: 20
Send a message via Skype™ to Afternoon Tea
Quote:
Originally Posted by shyezrylei View Post
Yeah thanks man! This is the best TAB of "No, Thank You!" I've seen yet.
wow that song is easier to play then I THOUGHT!
__________________
====
Signature:
Yui Hirasawa
====
MyBlog:
Blog!

====
Quote:
"I'll send
all my loving
to you.
"


Afternoon Tea is offline   Reply With Quote
Old 2010-07-16, 00:23   Link #433
Ryuzaki-San
Soul Of A Musician
 
 
Join Date: Jun 2010
Location: Your Nightmares
Quote:
Originally Posted by BlackKnightKanos View Post
Anyone lookin' for "NO, Thank You!" tabs?
Some good tabs there. Can't wait for the full versions of the new OP and ED to come out.
__________________
Ryuzaki-San is offline   Reply With Quote
Old 2010-07-16, 02:27   Link #434
MagnaDrake
iAmAwesome
 
 
Join Date: Jun 2010
Quote:
Originally Posted by BlackKnightKanos View Post
Anyone lookin' for "NO, Thank You!" tabs?
Thanks a bunch !
MagnaDrake is offline   Reply With Quote
Old 2010-07-16, 10:04   Link #435
BlackKnightKanos
Lord of The Netherealm
 
 
Join Date: Jun 2010
Location: Philippines
Send a message via Yahoo to BlackKnightKanos
Quote:
Originally Posted by Ryuzaki-San View Post
Some good tabs there. Can't wait for the full versions of the new OP and ED to come out.
I know right?! But August is like forever!!!
BlackKnightKanos is offline   Reply With Quote
Old 2010-07-17, 00:50   Link #436
Ryuzaki-San
Soul Of A Musician
 
 
Join Date: Jun 2010
Location: Your Nightmares
Quote:
Originally Posted by BlackKnightKanos View Post
I know right?! But August is like forever!!!
August is so far, I am dieing of anticipation. 'No, thank you!' will blow our mind. And I have to wait for my new Fender amp, oh god. I won't last long waiting.

Also anyone have tabs for 'Let's Go'? I haven't seen any around. And I suck at figuring tabs out for myself.
__________________
Ryuzaki-San is offline   Reply With Quote
Old 2010-07-17, 02:18   Link #437
BlackKnightKanos
Lord of The Netherealm
 
 
Join Date: Jun 2010
Location: Philippines
Send a message via Yahoo to BlackKnightKanos
Quote:
Originally Posted by Ryuzaki-San View Post
August is so far, I am dieing of anticipation. 'No, thank you!' will blow our mind. And I have to wait for my new Fender amp, oh god. I won't last long waiting.

Also anyone have tabs for 'Let's Go'? I haven't seen any around. And I suck at figuring tabs out for myself.
I try to tab it out

Edit:
I'm tabbing it out right now and it's a pretty easy song. There are like 4 chords through out the whole song, the only difference is the bridge. Expect it to be done by next week.

Last edited by BlackKnightKanos; 2010-07-17 at 02:56.
BlackKnightKanos is offline   Reply With Quote
Old 2010-07-18, 02:24   Link #438
lloonnee2
Junior Member
 
Join Date: Jul 2010
Drums for "No, Thank you!" seem to be easier than I thought, except for a few parts.
lloonnee2 is offline   Reply With Quote
Old 2010-07-18, 10:44   Link #439
MagnaDrake
iAmAwesome
 
 
Join Date: Jun 2010
Which reminds me.
Anybody seen "Lovely Sister LOVE" tabs? Or anyone willing to tab them?
MagnaDrake is offline   Reply With Quote
Old 2010-07-19, 22:53   Link #440
Bananoha
♨(ゝω・)v
 
 
Join Date: Oct 2007
Location: フェイトの中
Quote:
Originally Posted by MagnaDrake View Post
Anybody seen "Lovely Sister LOVE" tabs? Or anyone willing to tab them?
As long as you don't want the keyboard/drums/perc ones or show me a tutorial on how to tab them out in guitar pro because I'm lazy, I don't mind taking a stab.

Ui is awesome and totally worth it. 'A'
__________________

少し頭冷やそうか?
Bananoha is offline   Reply With Quote
Reply

Thread Tools

Posting Rules
You may not post new threads
You may not post replies
You may not post attachments
You may not edit your posts

BB code is On
Smilies are On
[IMG] code is On
HTML code is Off

Forum Jump


All times are GMT -5. The time now is 03:54.


Powered by vBulletin® Version 3.8.7
Copyright ©2000 - 2014, vBulletin Solutions, Inc.
We use Silk.