AnimeSuki Forums

Register Forum Rules FAQ Members List Social Groups Search Today's Posts Mark Forums Read

Go Back   AnimeSuki Forum > Anime Related Topics > Music

Notices

Reply
 
Thread Tools
Old 2011-12-30, 21:14   Link #261
alleif
Yo......
 
 
Join Date: Dec 2011
1st post I hope it helps ^^
High School of the Dead Opening Tabs

E-------------------------------
B-------------------------------
G------7-9-9-9------------------
D--9-9---------7-7-7-8-8-8------
A-------------------------------
E-------------------------------


E-------------------------------------------
B-------------------------------------------
G--7-7--9--7-7--7-7-7-6-6-6--12-11-11-9-7---
D--5-5--7--5-5--5-5-5-4-4-4--10-9--9--7-5---
A-------------------------------------------
E-------------------------------------------

E------------------------------/17-17-15---------/15--
B-----------------------------------------13-12-------
G-----------------------------------------------------
D--7-7--9--7-7---7-7--9--7-7--------------------------
A--5-5--7--5-5---5-5--7--5-5--------------------------
E-----------------------------------------------------

E------------------------------------------------------------------
B------------------------------------------------------------------
G--9-9-x-9-9-9-x-x-7-7-x-7-7-7-x-x-5-5-x-5-5-5-x-x-7-7-x-7-7-7-x-x-
D--9-9-x-9-9-9-x-x-7-7-x-7-7-7-x-x-5-5-x-5-5-5-x-x-7-7-x-7-7-7-x-x-
A--7-7-x-7-7-7-x-x-5-5-x-5-5-5-x-x-3-3-x-3-3-3-x-x-5-5-x-5-5-5-x-x-
E------------------------------------------------------------------

E---------------------------------------------------------------
B---------------------------------------------------------------
G------------------ 5-5-x-5-5-5-x-x-7-7-x-7-7-7-x-x--9--9--9--5--
D--7-7-x-7-7-7-x-x-5-5-x-5-5-5-x-x-7-7-x-7-7-7-x-x--9--9--9--5--
A--7-7-x-7-7-7-x-x-3-3-x-3-3-3-x-x-5-5-x-5-5-5-x-x--7--7--7--3--
E--5-5-x-5-5-5-x-x----------------------------------------------

E-------------------------------------------------------------
B-------------------------------------------------------------
G--2---------2--4---------4--5---------5--4-4-4-4-4-4-4-4-----
D--2---------2--4---------4--5---------5--4-4-4-4-4-4-4-4-----
A--0-0-0-0-0-0--2-2-2-2-2-2--3-3-3-3-3-3--2-2-2-2-2-2-2-2-----
E-------------------------------------------------------------

E--------------------------------
B--------------------------------
G---2--5--------5--4--5--7-------
D---2--5--5--7--5--4--5--7-------
A---0--3--5--7--3--2--3--5-------
E---------3--5-------------------

E----------------------
B----------------------
G-----4--3--2--0-------
D--2--------------0----
A----------------------
E----------------------
alleif is offline   Reply With Quote
Old 2011-12-30, 21:15   Link #262
alleif
Yo......
 
 
Join Date: Dec 2011
2nd post

Tora Dora OST
e -----------------------------------------------
b --------------------------------------------12--10
g -7/11----9--12--11--11/7--9---7---------------9--7
d -----------------------------------------------
a -----------------------------------------------
e -----------------------------------------------

e -----------------------------------------------
b --10--8-7-8-7----------------------------------
g --------------------7--9----9--7-6-7-7---7/9/7------
d -----------------------------------------------
a -----------------------------------------------
e -----------------------------------------------

e -----------------------------------------------
b ---------10----8---------------10----12-10-8---
g 6--7--9---------------6--7--9------------------
d -----------------------------------------------
a -----------------------------------------------
e -----------------------------------------------

e ---------10---------------------------------------------
b 8-7--10------12--10----8/7/8--8--7----------7-8-10-10---
g ----------------------------------------------7--9----------------
d --------------------------------------------------------
a --------------------------------------------------------
e --------------------------------------------------------

e ---------12-12----14-12-10----------12-12---12-14-15-----10
b 14-15---------------------------14-15------------------------
g --------------------------------------------------------
d --------------------------------------------------------
a --------------------------------------------------------
e --------------------------------------------------------

e --------------------------------------------------------
b ---10---8-7--7/10--7-------------8-7----8-7----------------
g ----------------------------9-7--9--------7-------7-7/9-11-9-----
d --------------------------------------------------------
a --------------------------------------------------------
e --------------------------------------------------------

e -----------------------------------------------
b -------------------------------------------12--10
g -7/11----9--12--11--11/7--9---7--------------9--7
d -----------------------------------------------
a -----------------------------------------------
e -----------------------------------------------

e ---------------------------------------------------------
b --10--8-7-8-7--------------------------------------------
g ------------------7--9---6-9--9-7-6-7-7--7/9/7---6--9--7----
d ---------------------------------------------------------
a ---------------------------------------------------------
e ---------------------------------------------------------

e -----------------------------------------------
b -----------------------------------------------
g -------9--7--------------------------------------
d -----------------------------------------------
a -----------------------------------------------
e -----------------------------------------------

feel free to feedback
alleif is offline   Reply With Quote
Old 2011-12-30, 21:18   Link #263
alleif
Yo......
 
 
Join Date: Dec 2011
3rd post

this one is rare Tsuna Awaken(Hitman reborn)

E||--3-------------------|--3---------------------|------------------------------|
B||--4-------------------|--4-----------------4-3-|--1--1-1-1--1-1-4---------4-6-|
G||--5-------------------|--5---------------------|-------------------5-5-5------|
D||----------------------|------------------------|------------------------------|
A||--3----3----3----3----|--3----3----3----3------|--3---------------------------|
E||----------------------|------------------------|----------------4-------------|


E S S E S S E S S E S S E S S E S S E S S E S S E S S E S S Q. S S
--3--3-3-3------3-------------|------------------------------|--3--3-3-3------3------11-10-|
------------4-6----6-6-6--4-3-|--1--1-1-1--1-1-4---------4-6-|------------4-6--------------|
------------------------------|-------------------5-5-5------|-----------------------------|
------------------------------|------------------------------|-----------------------------|
--6---------------------------|--3---------------------------|--6--------------------------|
----------------6-------------|----------------4-------------|----------------6------------|


E S S E S S E S S E S S E S S E S S E S S E S S
--8--8-8-8--8-8-11--8-8-8--11-13-|--15--15-15-15--11-13-15--13-13-13--11-10-|
---------------------------------|------------------------------------------|
---------0-----------------------|---0---------0----------------------------|
------------------------6--------|-----------------------0--------12--------|
----------------11---------------|------------------------------------------|
--8------------------------------|------------------------------------------|


E S S E S S E S S E S S Q Q Q Q Q E S S Q E S S
--8--8-8-8--8-8-11--8-8-8--11-13-|--15-------------------|--8-------6-8-8-------6-8-|
---------------------------------|-------------0----3----|--------------------------|
---------------------------------|--------0----0----4----|--------------------------|
---------------------------------|---0----0----0----5----|--------------------------|
---------6-----------------------|--------2--------------|--------------------------|
--8-------------11------8--------|-----------------------|--4----4------6----6------|


S S S S S S S S S S S S S S S S Q E S S Q E S S
--8-------10-------11---13---11---10---|--8-------6-8-8-------6-8-|
----8-8-8----8-8-8----8----8----8----8-|--------------------------|
---------------------------------------|--------------------------|
---------------------------------------|--------------------------|
---------------------------------------|--------------------------|
--8--------8--------8----8----8----8---|--4----4------6----6------|


S S S S E S S S S S S Q Q E S S Q E S S
--11-10-8-6-8--6-8-11-10-8-6-8----|--8-------6-8-8-------6-8-|
----------------------------------|--------------------------|
----------------------------------|--------------------------|
----------------------------------|--------------------------|
----------------------------------|--------------------------|
---8--------8-------8--------8----|--4----4------6----6------|


S S S S S S S S S S S S S S S S Q E S S Q E S S
--8-------10-------11---13---11---10---|--8-------6-8-8-------6-8-|
----8-8-8----8-8-8----8----8----8----8-|--------------------------|
---------------------------------------|--------------------------|
---------------------------------------|--------------------------|
---------------------------------------|--------------------------|
--8--------8--------8----8----8----8---|--4----4------6----6------|


S S S S E S S S S S S S S S S E S S E S S E S S E S S
--11-10-8-6-8----6-8-6-------------|-------------------------------------8--8-|
---------------8-------8-6-8-6-----|------------------------------------------|
-------------------------------8-7-|-----------------------8------------------|
-----------------------------------|--10--10-10-10--10-10-10--10-10-10--10-10-|
-----------------------------------|------------------------------------------|
---8--------8------8---8---8---8---|---8---------8---------8---------8--------|


E S S E S S E S S E S S E S S E S S E S S E S S E S S E S S E S S E S S
---8--8-8-8--8-8-11--8-8-8------|--1--1-1-1--1-1-4--1-1-1--4-6-|--8--8-8-8----6-8--6-6-6--4-3-|
----------------------------9-8-|------------------------------|------------9-----------------|
--------------------------------|------------------------------|------------------------------|
--10----------------------------|------------------------------|------------------------------|
--------------------------------|--3------3-------------4------|------------------------------|
---8------8-------8------8------|----------------4-------------|--4------8------3------6------|


E S S E S S E S S E S S E S S E S S Q E S S E S S E S S E S S E S S
--1--1-1-1--1-1-4--1-1-1--4-6-|--8--8-8-8----6-8-------4-3-|--1--1-1-1--1-1-4--1-1-1--4-6-|
------------------------------|------------9---------------|------------------------------|
------------------------------|----------------------------|------------------------------|
------------------------------|----------------------------|------------------------------|
--3------3-------------4------|----------------------------|---------3-------------4------|
----------------4-------------|--4------8------6----6------|--4-------------4-------------|


E S S E S S E S S E S S E S S E S S E S S E S S Q Q E S S S S S S
--8--8-8-8--4-6-8--6-6-6--4-3-|--1--1-1-1--1-1-4--1-1-1--4-6-|--8------------8-6-8-6-8-11-|
------------------------------|------------------------------|----------------------------|
------------------------------|------------------------------|----------------------------|
------------------------------|------------------------------|------------2---------------|
------------------------------|---------3-------------4------|-------3----3---------------|
--4------8------3------6------|--4-------------4-------------|------------3------8--------|


Q E S S Q E S S S S S S S S S S S S S S S S S S
--13-------11-13-13--------11-13-|--13----------15----------16----18----16----15----|
---------------------------------|-----13-13-13----13-13-13----13----13----13----13-|
---------------------------------|--------------------------------------------------|
---------------------------------|--------------------------------------------------|
---------------------------------|--------------------------------------------------|
---9----9--------11----11--------|--13----------13----------13----13----13----13----|


Q E S S Q E S S S S S S E S S S S S S Q
--13-------11-13-13--------11-13-|--16-15-13-11-13--11-13-16-15-13-11-13----|
---------------------------------|------------------------------------------|
---------------------------------|------------------------------------------|
---------------------------------|------------------------------------------|
---------------------------------|------------------------------------------|
---9----9--------11----11--------|--13----------13--------13----------13----|


Q E S S Q E S S S S S S S S S S S S S S S S S S
--13-------11-13-13--------11-13-|--13----------15----------16----18----16----15----|
---------------------------------|-----13-13-13----13-13-13----13----13----13----13-|
---------------------------------|--------------------------------------------------|
---------------------------------|--------------------------------------------------|
---------------------------------|--------------------------------------------------|
---9----9--------11----11--------|--13----------13----------13----13----13----13----|


Q E S S Q E S S S S S S E S S S S S S S S S S
--13-------11-13-13--------11-13-|--16-15-13-11-13--8-11-13-11-8-6-8-6-4-3-|
---------------------------------|-----------------------------------------|
---------------------------------|-----------------------------------------|
---------------------------------|-------------------------------------3---|
---------------------------------|------------------------8----8---8-------|
---9----9--------11----11--------|--13----------13-------------------------|


E S S E S S E S S E S S E S S E S S E S S E S S E S S E S S
--1--1-1-1--8-8-8--8-8-8--13-13-|--13--13-13-13--13-13-|--8--13-13-8--13-13-8--13-13-13--13-13-|
--------------------------------|----------------------|---------------------------------------|
--------------------------------|----------------------|---------------------------------------|
--------------------------------|----------------------|---------------------------------------|
----------------8------8--------|---8---------8---8----|--8---8----8---8----8---8-----8---8----|
--1------1----------------------|----------------------|---------------------------------------|


H. Q
--13-----------------||
--13-----------------||
---------------------||
---------------------||
---------------------||
--13-----------------||
alleif is offline   Reply With Quote
Old 2012-03-25, 12:42   Link #264
freshoutofthepan
Member
 
 
Join Date: Feb 2012
Hey~ I was hoping to find a thread like this.

To anyone who plays bass and are looking for tabs, there's a huge collection here by this guy.
http://xxxksk.web.fc2.com/

Tabs are in .ptb form, opened using Power Tab editor which is free. Am still not very good and bass, so any bassists out there feel free to share your tips~
freshoutofthepan is offline   Reply With Quote
Old 2012-10-16, 14:10   Link #265
fict_ticious
I can has drinks?
 
Join Date: Mar 2006
@freshoutofthepan: 'bout a month ago all the hyperlinks were pulled from that site, so although it's still being updated I don't think any tabs (ptb) are actually hosted on it anymore.
fict_ticious is offline   Reply With Quote
Old 2012-10-18, 02:21   Link #266
DannyAbel
Banned
 
Join Date: Sep 2012
Guitar is one of most popular music instruments. Guitar can bring beautiful sounds. But it is so hard to control the guitar tab.
DannyAbel is offline   Reply With Quote
Old 2013-09-18, 01:43   Link #267
deng17
Sylpheed
 
 
Join Date: Aug 2008
Location: Philippines
Age: 24
Send a message via Yahoo to deng17
Does anyone have a tab for Happily Ever After (Tengen Toppa Gurren Lagann)
deng17 is offline   Reply With Quote
Reply

Thread Tools

Posting Rules
You may not post new threads
You may not post replies
You may not post attachments
You may not edit your posts

BB code is On
Smilies are On
[IMG] code is On
HTML code is Off

Forum Jump


All times are GMT -5. The time now is 08:59.


Powered by vBulletin® Version 3.8.7
Copyright ©2000 - 2014, vBulletin Solutions, Inc.
We use Silk.