AnimeSuki Forums

Register Forum Rules FAQ Members List Social Groups Search Today's Posts Mark Forums Read

Go Back   AnimeSuki Forum > Anime Related Topics > Music

Notices

Reply
 
Thread Tools
Old 2006-01-31, 11:21   Link #21
solkef
Junior Member
 
Join Date: Jan 2006
Hum... Hello there, I found a few midi files that I transposed in tabs (using guitare player pro 5) for Mai Hime... If any one want Ensei... Just send me a mail. On the other hand, I have been searching for ELM from Cowboy Bebpo ost for a loooong time... does any one have the slightest idea where I could find the tab or the midi file? Thanks.
solkef is offline   Reply With Quote
Old 2006-03-23, 14:09   Link #22
Taboo
Riceball!
 
 
Join Date: Mar 2004
Location: Hiding
Age: 31
Send a message via Yahoo to Taboo
There are a lot of guitar and bass tabs from the Beck anime at aBeckFansite

I would suggest copying and saving them though, if you are interested. They tend to run out of bandwidth every once in a while.

(Btw, Beck is a great anime and I would definately suggest it to any guitar or bass player.)
__________________

Aliens, Time Travelers, Sliders and Espers recieve FREE FOOD! Come to us!
Taboo is offline   Reply With Quote
Old 2006-03-27, 22:06   Link #23
TooPurePureBoy
Socially Inept
 
 
Join Date: Nov 2003
Location: Retracing my steps.....
Ok. I know this is asking a lot. I also know that there probably isn't a snowballs chance in hell that this exsists out there, but I'll try and ask anyway seeing as one never knows.

Does anyone know if Tablature exsists for the song "Akatsuki no Kuruma" from Gundam Seed Destiny by Yuki Kajuira? There is some great guitar work in there so I was just hoping. Initial googling hasn't produced anything.
TooPurePureBoy is offline   Reply With Quote
Old 2006-03-30, 00:08   Link #24
frad113
Senior Member
 
 
Join Date: Dec 2005
Send a message via AIM to frad113
Here's a .gp4 (Guitar Pro 4) and a .mid of Aozora. It sounds pretty accurate to me, although the bass line was pretty much made up and the solo is not 100% what they play (but it's all pentatonics anyways, who cares, right? ); post any comments, suggestions or whatnot. Enjoy.

Guitar Pro
MIDI
__________________
баня, водка, гармонь и лосось.
amenochi.com
frad113 is offline   Reply With Quote
Old 2006-05-18, 11:46   Link #25
Crazy_O
Junior Member
 
Join Date: Nov 2004
guitar/e-guitar tabs of animesongs

I'm currently looking for some tabs of anime songs like H.T (trigun) or Worlds Without Logos (Hellsing). I really want to practice playing them on my e-/guitar.

Does anyone know a good webpage where i can find what im looking for?








i asked on several other forums on my native language but there was no response at all, so you are my last hope ^^
Crazy_O is offline   Reply With Quote
Old 2006-05-29, 09:50   Link #26
SirCanealot
What? I am washed up!
 
 
Join Date: Feb 2003
Location: London, England
Age: 29
Send a message via MSN to SirCanealot
I started tabbing the first FMA opening on bass since it has a kickass intro. I may as well dump it here. I'm not 100% sure it's correct though, but I checked everything and everything seems to make sense in the scale/key it's in (or, it did at the time):
Edit: if anyone really wanted me to finish, I probably could :P

Intro Riff Vocals kick in
G---------------------------------------7-7-5-5---------------55-44-22-00------------------
D-----------5---5-7-77-55----------------------7-7-5-5-------------------------------------
A-----3h5-7---7-----------7-5-------3-5-------------------2-3----------------0-2-22-00-----
E5-5-5-----------------------6---5-5-------------------3-3----------------1-1---------33-11

G--------------------------7-7-55----------------------------------------------------------
D----------------22-7-7-----------77-55----------------------------------------------------
A------00--22-33-------5-7----------------0-3-3-333-2222--0--------------------------------
E0-2-3----------------------------------3------------------3-2-2-2-2-2-2/10-10-10-10-10-10-


G-----------
D-----------
A-----------
E10-10-10-10

And whoever played Bass for the Beck songs is too good. I've been meaning to learn Spice of Life for ages, but the tab I haven't isn't great, and I'm too lazy to tab it myself. That and some of the runs actually sound pretty tough. That song is weird since on the "Beck" album version of Spice of Life the bass is turned waaaaaaayyyyyy up, way too far even (though I like it as a bass player :P); it goes as far to make the song almost completely bass lead (although maybe that's the point). The version of the "Keith" album is pretty interesting with the bass turned down to more "normal" levels (but still fairly loud).

Edit: crazy, look for guitar pro files. Or PM me an email if you get that desperate. I have them both :P
__________________
SirCanealot
And they shall know no fear....
SirCanealot is offline   Reply With Quote
Old 2006-05-30, 19:42   Link #27
ruchik
Member
 
Join Date: Jan 2006
so i have a request. does anyone have, or can figure out, the guitar tabs to "koi suru futari" from ah my goddess? its a really bomb diggity piece of music, but im having a lot of trouble figuring it out. or is there some way to run the song through guitar pro and have it figure out the tabs for me??
ruchik is offline   Reply With Quote
Old 2006-06-03, 18:46   Link #28
Jimbo3045
Junior Member
 
Join Date: Jun 2006
Question Naruto Tab

Does anyone know where to get the tab for Naruto songs?

There are guitarists here right?!?!

Last edited by Jimbo3045; 2006-06-03 at 18:58.
Jimbo3045 is offline   Reply With Quote
Old 2006-06-03, 22:37   Link #29
miaka
Senior Member
 
 
Join Date: Dec 2005
Quote:
Originally Posted by Jimbo3045
Does anyone know where to get the tab for Naruto songs?

There are guitarists here right?!?!
guitar tab/notation : here
music sheet: here
miaka is offline   Reply With Quote
Old 2006-08-01, 13:53   Link #30
uzumaki naruto-san
Hinata's bf :P
 
 
Join Date: Jan 2006
Age: 23
anyone know where i can get the guitar tabs for Flow - remember?
uzumaki naruto-san is offline   Reply With Quote
Old 2006-08-20, 19:48   Link #31
battousai138
Junior Member
 
 
Join Date: Aug 2006
Location: Man-o-War Cay, Abaco, Bahamas
Age: 24
Send a message via MSN to battousai138
searching for "Aozora" tab

Quote:
Originally Posted by frad113
If anyone is interested, I can fabricate a tab for the Green Green ED ("Aozora", by YURIA ). As an added bonus, I can do the solo too.
yes! could u post the tab? i've been seaching for the tab for that song everywhere and can't find it.

That song is awsome.

Please and thanks in advance.
battousai138 is offline   Reply With Quote
Old 2006-08-20, 20:18   Link #32
frad113
Senior Member
 
 
Join Date: Dec 2005
Send a message via AIM to frad113
Quote:
Originally Posted by battousai138
yes! could u post the tab? i've been seaching for the tab for that song everywhere and can't find it.
Beacause no one has it! Muahahahha!!! The midi and the Guitar Pro file (which is much better than the tab) are above. Here is the tab for the maing guitar track, but I strongly recommend using Guitar Pro.
__________________
баня, водка, гармонь и лосось.
amenochi.com
frad113 is offline   Reply With Quote
Old 2006-08-29, 22:37   Link #33
makeyourself
itadakimasu!
 
 
Join Date: Aug 2006
Location: Wonderland
Send a message via MSN to makeyourself
Thumbs up School Rumble Season 2 Intro Tab

This is my incomplete version of School Rumble Season 2 Intro song, I will edit it as I go along. Enjoy


Tokito Ami
"Sentimental Generation"
Dropped D Tuning


INTRO*
E|-8-|
B|---|
G|-5-|
D|---|
A|---|
D|---|

E|----------------8---8---8--|
B|-6-8-10-6-8-10-------------|
G|---------------(5)-(5)-(5)-| X3
D|---------------------------|
A|---------------------------|
D|---------------------------|

E|-8-6-5---6-5----|
B|-------8----8-6-|
G|----------------|
D|----------------|
A|----------------|
D|----------------|


CHORUS (sorry, strumming not included)
E|---------|----------|
B|---------|----------|
G|---------|----------|
D|-3-3-3-3-|-7-7-7-7--|
A|-3-3-3-3-|-7-7-7-7--|
D|-3-3-3-3-|-7-7-7-7--|
Bokura no | Seda-i-ga|

E|---------|----------|
B|---------|----------|
G|---------|----------|
D|-5-5-5-5-|-3-3---0--|
A|-5-5-5-5-|-3-3---0--|
D|-5-5-5-5-|-3-3---0--|
Omoshiroku | Surun-da!|

E|-------------|-------------|
B|-------------|-------------|
G|-------------|-------------|
D|-5-5-5-5-----|-0-0-0-0-----|
A|-5-5-5-5-----|-0-0-0-0-----|
D|-5-5-5-5-----|-0-0-0-0-----|
Kizutsuki yasui| sedai dakedo|

E|---------|-----|---------------|
B|---------|-----|---------------|
G|-3-3-3-3-|-5-5-|---------------|
D|-3-3-3-3-|-5-5-|---------3-3-3-|
A|-1-1-1-1-|-3-3-|---------3-3-3-|
D|---------|-----|---------3-3-3-|
Senchiment | aru | Our generation|

E|-----------------|
B|-----------------|
G|---5---7---8---9-| Kinda slide along these notes.
D|-----------------|
A|-3---5---6---7---|
D|-----------------|


VERSE (It's not really palm mute, but I placed them

there to give some idea of rhythm)
E|----------|----------|--------------|
B|----------|----------|--------------|
G|----------|----------|--------------|
D|-x3x3x3x3-|-x0x0x0x0-|-x5x5x5x5-----|
A|-x3x3x3x3-|-x0x0x0x0-|-x5x5x5x5-----|
D|-x3x3x3x3-|-x0x0x0x0-|-x5x5x5x5-----|
Onaji bunzut| su... |toki wa kizama|

E|----------|
B|----------|
G|-x5x5x5x5-|
D|-x5x5x5x5-|
A|-x3x3x3x3-|
D|----------|
...reteku |

E|------------|----------|----------------|
B|------------|----------|----------------|
G|------------|-x7x7x7x7-|----------------|
D|-x7x7x7x7---|-x7x7x7x7-|-x5x5x5x5-------|
A|-x7x7x7x7---|-x5x5x5x5-|-x5x5x5x5-------|
D|-x7x7x7x7---|----------|-x5x5x5x5-------|
"Suki na" koto| ga aru to| iu nara sore de|

E|----------|
B|----------|
G|----------|
D|-x3x3x3x3-|
A|-x3x3x3x3-|
D|-x3x3x3x3-|
juubun |

E|---------|
B|---------|
G|---------| I don't exactly know what's done here
D|-3-2-1-0-|
A|-3-2-1-0-|
D|-3-2-1-0-|


BRIDGE (I believe you only strum once and let it

ring)
E|------------|------------------------|
B|------------|------------------------|
G|------------|------------------------|
D|-8----------|-0----------------------|
A|-8----------|-0----------------------|
D|-8----------|-0----------------------|
Kore ya are de| guru guru meguru keredo|

E|-----------|-------------------|--------|
B|-----------|-------------------|--------|
G|-----------|-------------------|--------|
D|-5---------|-8-----------------|-7-7-7-7|
A|-5---------|-8-----------------|-7-7-7-7|
D|-5---------|-8-----------------|-7-7-7-7|
Otona yori mo| sentimental nan da| yo |


CHORUS
E|---------|----------|
B|---------|----------|
G|---------|----------|
D|-3-3-3-3-|-7-7-7-7--|
A|-3-3-3-3-|-7-7-7-7--|
D|-3-3-3-3-|-7-7-7-7--|
Bokura no | Seda-i-ga|

E|---------|----------|
B|---------|----------|
G|---------|----------|
D|-5-5-5-5-|-3-3---0--|
A|-5-5-5-5-|-3-3---0--|
D|-5-5-5-5-|-3-3---0--|
Omoshiroku | Surun-da!|

E|-------------|-------------|
B|-------------|-------------|
G|-------------|-------------|
D|-5-5-5-5-----|-0-0-0-0-----|
A|-5-5-5-5-----|-0-0-0-0-----|
D|-5-5-5-5-----|-0-0-0-0-----|
Kizutsuki yasui| sedai dakedo|

E|---------|-----|---------------|
B|---------|-----|---------------|
G|-3-3-3-3-|-5-5-|---------------|
D|-3-3-3-3-|-5-5-|---------3-3-3-|
A|-1-1-1-1-|-3-3-|---------3-3-3-|
D|---------|-----|---------3-3-3-|
Senchiment | aru | Our generation|

ENDING
E|---------------8-8-8-|
B|-6-8-10-6-8-10-------|
G|---------------5-5-5-| X3
D|---------------------|
A|---------------------|
D|---------------------|

E|-8-6-5---6-5----|
B|-------8----8-6-|
G|----------------|
D|----------------|
A|----------------|
D|----------------|

E|----------|
B|-5-7-9-10-|
G|----------|
D|----------|
A|----------|
D|----------|

*INTRO*: A piano sheet of the song seems to

disagree with the last part of the intro, Joshua C.

Agarrado (http://alphatrance.com) reckons:
E|--8---7---5------|--5-------------|
B|-(5)-(4)-(2)--8--|------8---6---5-|
G|-----------------|-(2)------------|
D|-------------(5)-|-----(5)-(3)-(2)|
A|-----------------|----------------|
D|-----------------|----------------|
So really, play what you think is right.
__________________

- why not try and make yourself? -

Last edited by makeyourself; 2006-08-30 at 04:56.
makeyourself is offline   Reply With Quote
Old 2006-09-04, 00:07   Link #34
fiokun
Junior Member
 
 
Join Date: Sep 2006
I've amde som guitarp pro files if you want , tell me

I have

- Siam Shade _ Dear
- Last Alliance _ Shissou
- Guilty Gear XX - Blue Water Blue Sky (as live version)

that's it..they are just guitar files..I didn't tab the bass and the drums are just a plain rythm
__________________
fiokun is offline   Reply With Quote
Old 2006-09-16, 08:27   Link #35
xj747
Junior Member
 
Join Date: Sep 2006
can u send me the siam shade dear guitar pro file please i've been looking for it a long time, thx alot! kill143@hotmail.com
xj747 is offline   Reply With Quote
Old 2006-09-16, 19:23   Link #36
kheleos
Junior Member
 
Join Date: Sep 2006
Quote:
Originally Posted by fiokun
I've amde som guitarp pro files if you want , tell me

I have

- Siam Shade _ Dear
- Last Alliance _ Shissou
- Guilty Gear XX - Blue Water Blue Sky (as live version)

that's it..they are just guitar files..I didn't tab the bass and the drums are just a plain rythm

can you send me the thingy to shissou? i am lookingfor the tab allready a long long time ;_;
kheleos is offline   Reply With Quote
Old 2006-09-16, 21:03   Link #37
BreakerX
Junior Member
 
 
Join Date: Sep 2006
Send a message via MSN to BreakerX
Quote:
Originally Posted by fiokun
I've amde som guitarp pro files if you want , tell me

I have

- Siam Shade _ Dear
- Last Alliance _ Shissou
- Guilty Gear XX - Blue Water Blue Sky (as live version)

that's it..they are just guitar files..I didn't tab the bass and the drums are just a plain rythm
i would like the Last Alliance Shissou one, been looking for it for ages.
Send me at super090@hotmail.com plz!
BreakerX is offline   Reply With Quote
Old 2006-09-17, 23:41   Link #38
guardiangel
Junior Member
 
Join Date: Sep 2006
yeh i've been looking for shissou tabs for like eternity...
can someone send it to me pweese?
my e-mail is reinforcementsx@yahoo.com
guardiangel is offline   Reply With Quote
Old 2006-09-18, 22:39   Link #39
Bludragon41
Junior Member
 
Join Date: Sep 2006
i would like the tab for shissou as well. my e-mail is
R3DdRaG0N41@yahoo.com
Bludragon41 is offline   Reply With Quote
Old 2006-09-18, 23:36   Link #40
phelan_kell
loves Mai :D
 
 
Join Date: Jul 2006
Location: CA, USA
Quote:
Originally Posted by Nine-Tails-Nin
Ok. I know this is asking a lot. I also know that there probably isn't a snowballs chance in hell that this exsists out there, but I'll try and ask anyway seeing as one never knows.

Does anyone know if Tablature exsists for the song "Akatsuki no Kuruma" from Gundam Seed Destiny by Yuki Kajuira? There is some great guitar work in there so I was just hoping. Initial googling hasn't produced anything.
I've been asking for Dawn's Carriage ever since the song came out, and it never appeared.

I'm trying to do it myself, but it's a really long song, and I don't have a lot of time on my hands...

I need to find some Noir guitar tabs too. I just haven't had the time to look for 'em.
__________________

"Time sets all things right. Error lives but a day. Truth is eternal."
-Gen. Longstreet
phelan_kell is offline   Reply With Quote
Reply

Thread Tools

Posting Rules
You may not post new threads
You may not post replies
You may not post attachments
You may not edit your posts

BB code is On
Smilies are On
[IMG] code is On
HTML code is Off

Forum Jump


All times are GMT -5. The time now is 20:48.


Powered by vBulletin® Version 3.8.7
Copyright ©2000 - 2014, vBulletin Solutions, Inc.
We use Silk.