AnimeSuki Forums

Register Forum Rules FAQ Members List Social Groups Search Today's Posts Mark Forums Read

Go Back   AnimeSuki Forum > Anime Related Topics > Music

Notices

Reply
 
Thread Tools
Old 2008-01-20, 20:51   Link #121
baka_kao
Junior Member
 
Join Date: Jan 2006
Hi there, anybody happen to know the tab for Beat Crusaders Ghost? Bass or guitar??
baka_kao is offline   Reply With Quote
Old 2008-02-08, 18:05   Link #122
Caldron
Aria feels good....
 
 
Join Date: Jun 2007
Location: In my cube (it looked kinda rectangular though, he says)...
Age: 26
http://rapidshare.com/files/443732810/Rozen_Maiden_tabs.rar

List:
Battle of rose
Bara no Jubai
Alice game
Noble dolls
Kurayami Yori Kitaru Mono
Hageshii Omoi

All for gp5 (some ascii versions too)
__________________



Last edited by Caldron; 2011-01-21 at 06:28.
Caldron is offline   Reply With Quote
Old 2008-02-23, 22:31   Link #123
Chronissz
Member
 
Join Date: Dec 2003
Quote:
Originally Posted by Caldron View Post
If you're talking about accoustic version
I guess it would be like this:
E----5s7s5-----2h3p2-2-----------------------------------------------------------
B----5s7s5---------------------7--8--10---------------------8-7-----7--------10-
G------------------------------7--7--9--7----------7--------------------9-7-------
D--0----------0--------------------------------7s9----7s9-------------------------
A-----------------------------------------------------------------------------------
E-----------------------------------------------------------------------------------

I'll work more on it later :P
That looks mostly correct, your missing a 7 on the G string right after 8-7 on the B. The harmonic at the end is actually fret 7 on the G string, not the lower one, 12 on the D.

I tabbed out the little electric guitar solo in the full song:
(Starts at 2:51 in this vid: http://www.youtube.com/watch?v=kk6uk...eature=related )

Elec. Guitar

E|-----------------------------------------------------------------10-10s14-15-14-12-10----------------------
B|-------7-7-10--------------5s8s7-8-7-----------7-7h10s12-10h12------------------------10s12s10-------------
G|---7h9---------7s9s7-----------------------7h9---------------------------------------------------7s9s7-------
D|7h9-----------------7s9s7-----------------------------------------------------------------------------
A|---------------------------------------------------------------------------------------------------------
E|---------------------------------------------------------------------------------------------------------


E|-----------------------------------------------------------------
B|-------7--------10---------------------------------------------------
G|7--7s9--9--9s11---s11-s9--7--------7s9-9s11-9-7-5s7------------------
D|-----------------------------7s9s7--7s9-9s11-9-7-5s7------------------
A|-----------------------------------------------------------------
E|-----------------------------------------------------------------

h = hammer on
s = slide
Note on the slides:
9-9s11 means you hit 9 once, then hit 9 again and immediately slide to 11,
---s11-- means you quickly slide to the note without emphasising a prior note.

Its not 100% right, the ascending run in that high note part is a bit off I think, and the end notes sound like singles but I wanted to double up with the next string. Its the closest I could get for now.

Last edited by Chronissz; 2008-02-23 at 22:43.
Chronissz is offline   Reply With Quote
Old 2008-03-07, 15:02   Link #124
lawliet_x
Junior Member
 
Join Date: Mar 2008
Question Death Note

Does anyone have the bass tab for L's theme B ?

E-mail me on here or my email address please!!

My email:
maple.gunman@hotmail.co.uk

Thank you!~
lawliet_x is offline   Reply With Quote
Old 2008-03-07, 16:59   Link #125
Endrance
~Rock ☆~
*Graphic Designer
 
 
Join Date: Apr 2007
Location: In The Farplane
Ive been trying to find the guitar tabs to Duvet from serial experiment lain can anyone help me with that?
__________________
Endrance is offline   Reply With Quote
Old 2008-03-08, 08:53   Link #126
Daughter!
Senior Member
 
Join Date: Sep 2007
Quote:
Originally Posted by Endrance View Post
Ive been trying to find the guitar tabs to Duvet from serial experiment lain can anyone help me with that?
PART ONE

e|--------------------------------------------------------------------------------------------------|
B|3-2-0-2-3-5-7-0~--3-2-0-2-3-5-7-5-7-5-3-2---3-2-0-2-3-5-7-0~--3-2-0-2-3-5-7|
G|--------------------------------------------------------------------------------------------------|
D|--------------------------------------------------------------------------------------------------|
A|--------------------------------------------------------------------------------------------------|
E|---------------------------------------------------------------------------------------------------|

And you don't seem to understand...

e|-------------------------------------------5-----------------------------------------------|
B|5-7~5-3-2--0-7-7-5-7-5-7-5---0-7-7-7-7-5-7---5----3-2-0-2-3-5-0-7-5-3-2-|
G|--------------------------------------------------------------------------------------------|
D|--------------------------------------------------------------------------------------------|
A|--------------------------------------------------------------------------------------------|
E|--------------------------------------------------------------------------------------------|

Repeat everything up to here twice

PART TWO

e|-7-5-0-0-0--7-5-0-0-0--7-5-0-0-0~----0-0-|
B|-----------------------------------3----------------|
G|----------------------------------------------------|
D|----------------------------------------------------|
A|----------------------------------------------------|
E|----------------------------------------------------|


PART THREE

e|-7-5-0-0-0--7-5-0-0-0--7-5-0-0-0-2-------5-2|
B|-----------------------------------3-3-5-------------|
G|-------------------------------------------------------| 2X
D|-------------------------------------------------------|
A|-------------------------------------------------------|
E|-------------------------------------------------------|


SOLO

e|-5-5-5-5-10-9-7-9-10/12-12-14-12-10-9-10-9-10-9-7-7-----|
b|--------------------------------------------------------------------------|
g|--------------------------------------------------------------------------|
d|--------------------------------------------------------------------------|
a|--------------------------------------------------------------------------|
e|--------------------------------------------------------------------------|

e|-5-5-5-5-10-9-7-9-10/12-12-14-12-14-12-14-12-14-19-19-|
b|--------------------------------------------------------------------------|
g|--------------------------------------------------------------------------|
d|--------------------------------------------------------------------------|
a|--------------------------------------------------------------------------|
e|--------------------------------------------------------------------------|
Daughter! is offline   Reply With Quote
Old 2008-03-12, 18:34   Link #127
littlesparrow51
Junior Member
 
Join Date: Mar 2007
http://www.youtube.com/watch?v=vQGy0...eature=related
Kanon - Last Regrets

Seems someone tabbed it out, VERY NICELY, but isn't sharing lol.

Anyone working on this song? I would love to help out.

I worked out the intro of the video, sounds pretty close.
e -x-2----x-2---------x-2-5---x-2-5--5-5-7---9-----------
b -5------5-----------5---------5------------7---10-----------
g -4--4---4---4--2----4---------4------------6---11-----------
d -0------5-----------0---------0------------0---9-----------
a -0------0-----------0---------0------------0---9-----------
e -3------0-----------3---------3------------5---9-----------

Last edited by littlesparrow51; 2008-03-12 at 19:11.
littlesparrow51 is offline   Reply With Quote
Old 2008-03-12, 21:01   Link #128
godraziert
Senior Member
 
 
Join Date: Jul 2006
Quote:
Originally Posted by littlesparrow51 View Post
http://www.youtube.com/watch?v=vQGy0...eature=related
Kanon - Last Regrets

Seems someone tabbed it out, VERY NICELY, but isn't sharing lol.

Anyone working on this song? I would love to help out.

I worked out the intro of the video, sounds pretty close.
e -x-2----x-2---------x-2-5---x-2-5--5-5-7---9-----------
b -5------5-----------5---------5------------7---10-----------
g -4--4---4---4--2----4---------4------------6---11-----------
d -0------5-----------0---------0------------0---9-----------
a -0------0-----------0---------0------------0---9-----------
e -3------0-----------3---------3------------5---9-----------
Actually, he does have the tabs and the mp3 of him playing on his blog.

Click on '楽譜とMP3はココ'.
__________________
godraziert is offline   Reply With Quote
Old 2008-03-13, 21:23   Link #129
littlesparrow51
Junior Member
 
Join Date: Mar 2007
Quote:
Originally Posted by godraziert View Post
Actually, he does have the tabs and the mp3 of him playing on his blog.

Click on '楽譜とMP3はココ'.
I want to love you...for being able to read that stuff....

LOOOL YEEEEAHHH That means Tori no Uta AND Last Regrets

hahaha, when I read what you wrote, I did an insane laugh and people looked at me lol.

Thank you very much for translating, and thank him for that goodness!

EDIT:::
Hey, do any of you get blanks for the "last Regrets" tab? the numers aren't showing up for me...

Last edited by littlesparrow51; 2008-03-13 at 22:12.
littlesparrow51 is offline   Reply With Quote
Old 2008-03-14, 00:52   Link #130
mpt37
Senior Member
 
 
Join Date: May 2007
I had that problem, but my adobe reader asked me if I wanted to download a Japanese Font patch. I clicked ok and after it installed that the numbers showed up for me.

Hope that helps.

Edit:

Just want to thank godraziert for pointing out where to download the tabs. Thanks!
mpt37 is offline   Reply With Quote
Old 2008-03-23, 04:50   Link #131
Tkpenalty
I Want GN Flag II
 
 
Join Date: Feb 2008
Location: A-LAWLS Base (orly?)
Does anyone have the death note intro tabs?

I mean, The WORLD by Naitomea. Honestly i've been searching for ages and all I get is chords and one small segment of the song. (the solo). It would be great if I could have both Histugi's and Sakito's parts!

Please!
Tkpenalty is offline   Reply With Quote
Old 2008-03-24, 00:22   Link #132
Biswa
Senior Member
 
 
Join Date: Sep 2004
This is to guitar-talented or musically talented people: I hope this is sort of the place to maybe request to make a tab?

Anyone want to try to make a tab for this song?
http://www.sendspace.com/file/kqn3u6

Extra points for whoever can figure out where its from :P (I know where its from, but I actually haven't seen the anime. Just curious as to how many people could actually recognize it)

If this isn't the place to make a request, please let me know so i can delete it or delete it yourself, mod.
Biswa is offline   Reply With Quote
Old 2008-03-26, 15:22   Link #133
Mahouko
Junior Member
 
Join Date: Mar 2008
Smile Tabs

Does Anyone know where to find tabs for the opening of Zero no Tsukaima Futatsuki no Kishi: I Say Yes By Ichiko? I Really want to know that song =) First time in Anime Suki lol
Mahouko is offline   Reply With Quote
Old 2008-03-27, 21:04   Link #134
asu
Junior Member
 
Join Date: Mar 2008
Quote:
Originally Posted by fiokun View Post
I've amde som guitarp pro files if you want , tell me

I have

- Siam Shade _ Dear
- Last Alliance _ Shissou
- Guilty Gear XX - Blue Water Blue Sky (as live version)

that's it..they are just guitar files..I didn't tab the bass and the drums are just a plain rythm
can you please send them all to ccrruusshh@hotmail.com please, i been looking for a long time, thanks in advance!
asu is offline   Reply With Quote
Old 2008-04-01, 02:19   Link #135
mpt37
Senior Member
 
 
Join Date: May 2007
http://www.nicovideo.jp/watch/sm1971406

I found this video of "Sorairo Days" (Gurren Lagann OP) but the vids too small for me to figure out the tab. Does anyone happen to have the tab for it or know where to find it?

Thanks in advance!
mpt37 is offline   Reply With Quote
Old 2008-04-11, 09:56   Link #136
Caldron
Aria feels good....
 
 
Join Date: Jun 2007
Location: In my cube (it looked kinda rectangular though, he says)...
Age: 26
Quote:
Originally Posted by Biswa View Post
This is to guitar-talented or musically talented people: I hope this is sort of the place to maybe request to make a tab?

Anyone want to try to make a tab for this song?
http://www.sendspace.com/file/kqn3u6

Extra points for whoever can figure out where its from :P (I know where its from, but I actually haven't seen the anime. Just curious as to how many people could actually recognize it)

If this isn't the place to make a request, please let me know so i can delete it or delete it yourself, mod.
This is the right place to do so. I like the music, but I ain't got time to do the tabs, they're not hard though.

Battle of rose tab: http://www.mediafire.com/?pwqw82wn9hije04 (link updated)

I'm learning some black mages musics, might do some tabs later if possible, at least Clash on the big bridge.
__________________



Last edited by Caldron; 2011-01-21 at 06:24.
Caldron is offline   Reply With Quote
Old 2008-06-21, 10:59   Link #137
FuzzyWuzzy
Senior Member
 
 
Join Date: Aug 2007
I'm looking for sora iro days also.
__________________
FuzzyWuzzy is offline   Reply With Quote
Old 2008-06-22, 13:43   Link #138
loonygamer
Metal-head. Rock Artist.
*Graphic Designer
 
 
Join Date: Jun 2008
Location: Temecula, CA
Age: 25
http://youtube.com/watch?v=fIU4v3dSGLo

Does anyone want to help me tab this out? I've only gotten the intro down, and playing the vocals. The solo is a bit of a challenge, and so is the rhythm part.

I'm also tabbing out the rhythm, lead, and vocals for "Joint" (Shakugan no Shana fans, rejoice!)
__________________
"Ponytails... Ponytails... they turn me on." - Kyon

loonygamer is offline   Reply With Quote
Old 2008-06-23, 09:33   Link #139
Coe
Member
 
 
Join Date: Jun 2008
Location: Pennsylvania
Age: 24
Has anyone figured out the tabs to Guri Guri, the opening song to Green Green yet? I've been trying and can't quite get it down.
Coe is offline   Reply With Quote
Old 2008-06-23, 11:01   Link #140
godraziert
Senior Member
 
 
Join Date: Jul 2006
Quote:
Originally Posted by loonygamer View Post
I'm also tabbing out the rhythm, lead, and vocals for "Joint" (Shakugan no Shana fans, rejoice!)
Shall be eagerly anticipating it even though I'm a beginner and probably can't play it.
__________________
godraziert is offline   Reply With Quote
Reply

Thread Tools

Posting Rules
You may not post new threads
You may not post replies
You may not post attachments
You may not edit your posts

BB code is On
Smilies are On
[IMG] code is On
HTML code is Off

Forum Jump


All times are GMT -5. The time now is 19:03.


Powered by vBulletin® Version 3.8.7
Copyright ©2000 - 2014, vBulletin Solutions, Inc.
We use Silk.