AnimeSuki Forums

Register Forum Rules FAQ Members List Social Groups Search Today's Posts Mark Forums Read

Go Back   AnimeSuki Forum > Anime Discussion > Older Series > Retired > K-On!

Notices

Reply
 
Thread Tools
Old 2010-07-31, 02:30   Link #481
Tsumugi~
"This guy are sick."
 
 
Join Date: Apr 2010
Location: Italy
Oh sorry, I saw the kanjis in the title and thought you were japanese ^_^
But yeah the Les Paul is a really good guitar period.
__________________
http://forums.animesuki.com/images/as.icon/signaturepics/sigpic108725_72.gif
Tsumugi~ is offline   Reply With Quote
Old 2010-07-31, 02:31   Link #482
kerodean
Junior Member
 
 
Join Date: Jul 2010
Quote:
Originally Posted by Shana-tan87 View Post
Oh sorry, I saw the kanjis in the title and thought you were japanese ^_^
But yeah the Les Paul is a really good guitar period.
Mines actually a Tokai ALS48 because I'm not rich enough to afford a real Gibson hah
kerodean is offline   Reply With Quote
Old 2010-07-31, 02:33   Link #483
Tsumugi~
"This guy are sick."
 
 
Join Date: Apr 2010
Location: Italy
You just need to find a good offer. Damn, I saw one on ebay for like 2000$ O_o
__________________
http://forums.animesuki.com/images/as.icon/signaturepics/sigpic108725_72.gif
Tsumugi~ is offline   Reply With Quote
Old 2010-07-31, 02:34   Link #484
Afternoon Tea
Ta~Da!!
*Artist
 
 
Join Date: Mar 2010
Location: Illinois, United States
Age: 20
Send a message via Skype™ to Afternoon Tea
Thanks for the head up OZ7UP, yeah the Music thread is probably for the best, but anyways anyone have sheet music for No, Thank you? I have a guitar pro version but i just want to compare it
__________________
====
Signature:
Yui Hirasawa
====
MyBlog:
Blog!

====
Quote:
"I'll send
all my loving
to you.
"



Last edited by Afternoon Tea; 2010-07-31 at 02:51.
Afternoon Tea is offline   Reply With Quote
Old 2010-07-31, 02:45   Link #485
OZ7UP
Reckless Rock'N'Roll
*Author
 
 
Join Date: Nov 2009
Location: Melbourne, Australia
Age: 25
Right, a couple of things to say before any of the mods (or the more "strict" posters) get in.

1.) @ Kerodean: Brilliant cover song - really has that whole blues/slide guitar feel to it.

2.) @ CaptnAwesomee: Sorry to rain on your parade, but you did pretty much derail the thread. Please stick to either public/private messaging or to the musical instruments discussion thread.
__________________

I'm not really into claiming characters, but these are my exceptions: Alexandra Garcia (Kuroko no Basket), MAGES. (Hyperdimension Neptunia Victory), Nyotalia!France (Hetalia), Nyotalia!Austria (Hetalia), Mayumi Kisaki (The Devil is a Part-Timer!), Kirishima (Arpeggio of Blue Steel), Federica N. Doglio (Strike Witches), and Uomi (Seitokai Yakuindomo).
OZ7UP is offline   Reply With Quote
Old 2010-07-31, 03:55   Link #486
BlackKnightKanos
Lord of The Netherealm
 
 
Join Date: Jun 2010
Location: Philippines
Send a message via Yahoo to BlackKnightKanos
Quote:
Originally Posted by Shana-tan87 View Post
^Seems like everyone in Japan has gitah lol
I want one. It's too bad I'm stuck with a Fender...
BlackKnightKanos is offline   Reply With Quote
Old 2010-07-31, 03:57   Link #487
BlackKnightKanos
Lord of The Netherealm
 
 
Join Date: Jun 2010
Location: Philippines
Send a message via Yahoo to BlackKnightKanos
Quote:
Originally Posted by CaptnAwesomee View Post
Thanks for the head up OZ7UP, yeah the Music thread is probably for the best, but anyways anyone have sheet music for No, Thank you? I have a guitar pro version but i just want to compare it
Here you go...
BlackKnightKanos is offline   Reply With Quote
Old 2010-07-31, 03:58   Link #488
Afternoon Tea
Ta~Da!!
*Artist
 
 
Join Date: Mar 2010
Location: Illinois, United States
Age: 20
Send a message via Skype™ to Afternoon Tea
Quote:
Originally Posted by BlackKnightKanos View Post
thanks! I was looking everywhere for that
__________________
====
Signature:
Yui Hirasawa
====
MyBlog:
Blog!

====
Quote:
"I'll send
all my loving
to you.
"


Afternoon Tea is offline   Reply With Quote
Old 2010-07-31, 04:28   Link #489
kerodean
Junior Member
 
 
Join Date: Jul 2010
Just finished the tabs for the YuiAzu Fude Pen Boru Pen

Code:
ballpen.txt

E  :------------------|------------------|-------------------------|
B  :------------------|------------------|-------------------------|
G  :------------------|9---x-9-9----x-9--|-9-----x-9----9-----x-9--|
D  :x---x--x(x)---x---|9---x-9-9----x-9--|-9-----x-9----9-----x-9--|
A  :x---x--x(x)---x---|7---x-7-7----x-7--|-7-----x-7----7-----x-7--|
E  :x---x--x(x)---x---|------------------|-------------------------|

E  :------------------|------------------|-------------------------|
B  :------------------|------------------|-------------------------|
G  :------------------|9--*8-------------|----8--*---8------------8|
D  :------------------|-------*9----*---9|11--*-11-----11--9-11----|
A  :------------------|------------11----|-------------------------|
E  :------------------|------------------|-------------------------|

============================================================================

E  :--------------------|------------------------|----------------|
B  :--------------------|------------------------|----------------|
G  :11---x-11-11---x-11-|11-----x-11-11-----x--9-|9---x-9-9---x-9-|
D  :11---x-11-11---x-11-|11-----x-11-11-----x--9-|9---x-9-9---x-9-|
A  :-9---x--9--9---x--9-|-9-----x--9--9-----x--7-|7---x-7-7---x-7-|
E  :--------------------|------------------------|----------------|

E  :--------------------|------------------------|----------------|
B  :--------------------|---------12-13-12-------|----------------|
G  :11------------------|13-11-13----------12-11-|9---------------|
D  :--------------------|------------------------|----------------|
A  :--------------------|------------------------|----------------|
E  :--------------------|------------------------|----------------|

============================================================================

E  :------------------|--------------------|----------------|
B  :------------------|--------------------|----------------|
G  :9-*---------------|9---x-(-9)-9----x-9-|9---x-9-9---x-9-|
D  :9-*---------------|9---x-(-9)-9----x-9-|9---x-9-9---x-9-|
A  :7-*---------------|7---x-(-7)-7----x-7-|7---x-7-7---x-7-|
E  :------------------|--------------------|----------------|

E  :------------------|--------------------|----------------|
B  :----12-*-12-------|------------------9-|*-9---*---------|
G  :----14-*-14-------|-----------9----*---|----------------|
D  :------------------|----9--11--*---11-*-|----------------|
A  :------------------|--------------------|----------------|
E  :------------------|--------------------|----------------|

============================================================================

E  :---------------------|--------------------|-------------------|
B  :---------------------|--------------------|-------------------|
G  :-*---x--*--*----x--*-|-*---x--*--*---x--*-|6---x--6-6----x--6-|
D  :11---x-11-11----x-11-|11---x-11-11---x-11-|7---x--7-7----x--7-|
A  :11---x-11-11----x-11-|11---x-11-11---x-11-|7---x--7-7----x--7-|
E  :-9---x--9--9----x--9-|-9---x--9--9---x--9-|5---x--5-5----x--5-|

E  :---------------------|--------------------|-------------------|
B  :-------------------9-|-*-9----*-----------|-------------------|
G  :-----------9----*----|--------------------|---------9----*-12-|
D  :-----9-11--*---11--*-|--------------------|----9-11-*---11--*-|
A  :---------------------|--------------------|-------------------|
E  :---------------------|--------------------|-------------------|

============================================================================

E  :------------------|------------------|------------------|
B  :------------------|------------------|------------------|
G  :6----x-6-6----x-6-|9---x-(9)-9---x-9-|----*-------------|
D  :7----x-7-7----x-7-|9---x-(9)-9---x-9-|--x-9---10---11---|
A  :7----x-7-7----x-7-|7---x-(7)-7---x-7-|--x-9---10---11---|
E  :5----x-5-5----x-5-|*-----------------|--x-7----8----9---|

E  :------------------|------------------|------------------|
B  :---*--------*-----|--9----9----------|------------------|
G  :--11---9----*-----|------------------|------------------|
D  :-----------11---9-|--*---------------|------------------|
A  :------------------|------------------|------------------|
E  :------------------|------------------|------------------|

============================================================================

E  :--------------------|----------------|---------------------|
B  :--------------------|----------------|---------------------|
G  :9---x-(-9)-9----x-9-|9---x-9-9---x-9-|-*---x--*--*----x--*-|
D  :9---x-(-9)-9----x-9-|9---x-9-9---x-9-|11---x-11-11----x-11-|
A  :7---x-(-7)-7----x-7-|7---x-7-7---x-7-|11---x-11-11----x-11-|
E  :*-------------------|----------------|-9---x--9--9----x--9-|

E  :--------------------|----------------|---------------------|
B  :------------------9-|*-9---*---------|-------------------9-|
G  :-----------9----*---|----------------|-----------9----*----|
D  :----9--11--*---11-*-|----------------|-----9-11--*---11--*-|
A  :--------------------|----------------|---------------------|
E  :--------------------|----------------|---------------------|

============================================================================

E  :--------------------|-------------------|-------------------|
B  :--------------------|-------------------|-------------------|
G  :-*---x--*--*---x--*-|6---x--6-6----x--6-|5----x-5-5----x--5-|
D  :11---x-11-11---x-11-|7---x--7-7----x--7-|7----x-7-7----x--7-|
A  :11---x-11-11---x-11-|7---x--7-7----x--7-|7----x-7-7----x--7-|
E  :-9---x--9--9---x--9-|5---x--5-5----x--5-|5----x-5-5----x--5-|

E  :--------------------|-------------------|-------------------|
B  :-*-9----*-----------|-------------------|---*--------*------|
G  :--------------------|---------9----*-12-|--11---9---11---11-|
D  :--------------------|----9-11-*---11--*-|-------------------|
A  :--------------------|-------------------|-------------------|
E  :--------------------|-------------------|-------------------|

============================================================================

E  :------------------|----------------|----------------|----------------|
B  :------------------|----------------|----------------|----------------|
G  :9---x-(9)-9---x-9-|9---9---8---7---|6---*-----------|*---------------|
D  :9---x-(9)-9---x-9-|9---9---8---7---|6---*-----------|*---------------|
A  :7---x-(7)-7---x-7-|7---7---6---5---|4---*-----------|*---------------|
E  :*-----------------|----------------|----------------|----------------|

E  :------------------|----------------|----------------|----------------|
B  :------------------|----------------|----9-8---------|----------------|
G  :9-----------------|----------------|----------------|----------------|
D  :------------------|----------------|----------------|----------------|
A  :------------------|----------------|----------------|----------------|
E  :------------------|----------------|----------------|----------------|
kerodean is offline   Reply With Quote
Old 2010-07-31, 04:31   Link #490
Afternoon Tea
Ta~Da!!
*Artist
 
 
Join Date: Mar 2010
Location: Illinois, United States
Age: 20
Send a message via Skype™ to Afternoon Tea
Quote:
Originally Posted by kerodean View Post
Just finished the tabs for the YuiAzu Fude Pen Boru Pen
omg thank you soo much
__________________
====
Signature:
Yui Hirasawa
====
MyBlog:
Blog!

====
Quote:
"I'll send
all my loving
to you.
"


Afternoon Tea is offline   Reply With Quote
Old 2010-07-31, 16:00   Link #491
Bananoha
♨(ゝω・)v
 
 
Join Date: Oct 2007
Location: フェイトの中
Quote:
Originally Posted by CaptnAwesomee View Post
lol keep it up i cant wait!
hory shet, my ears can't handle listening to this song over and over again.

C Cmaj7 Am C
F C G C
F Em G C

This sounds good enough for me. Even better if you try to sing over it. 8D
__________________

少し頭冷やそうか?
Bananoha is offline   Reply With Quote
Old 2010-08-01, 10:37   Link #492
MagnaDrake
iAmAwesome
 
 
Join Date: Jun 2010
So apparently the new OP and ED songs are released earlier than we expected.
MagnaDrake is offline   Reply With Quote
Old 2010-08-01, 17:13   Link #493
Afternoon Tea
Ta~Da!!
*Artist
 
 
Join Date: Mar 2010
Location: Illinois, United States
Age: 20
Send a message via Skype™ to Afternoon Tea
Quote:
Originally Posted by Bananoha View Post
hory shet, my ears can't handle listening to this song over and over again.

C Cmaj7 Am C
F C G C
F Em G C

This sounds good enough for me. Even better if you try to sing over it. 8D
Man I can't seem to get the strum pattern right


I think is sort of how it goes right? Can someone correct me


Ame ame fure fure kaasan ga
C--------Cmaj7--- Am--C--
Janome de omukae ureshiina
F--C----G--------C---------
pichi pichi chapu chapu ran ran ran

Ame ame fure fure kaasan ga

Janome de omukae ureshiina

pichi pichi chapu chapu ran ran ran
__________________
====
Signature:
Yui Hirasawa
====
MyBlog:
Blog!

====
Quote:
"I'll send
all my loving
to you.
"


Afternoon Tea is offline   Reply With Quote
Old 2010-08-01, 19:33   Link #494
Bananoha
♨(ゝω・)v
 
 
Join Date: Oct 2007
Location: フェイトの中
Quote:
Originally Posted by CaptnAwesomee View Post
Man I can't seem to get the strum pattern right


I think is sort of how it goes right? Can someone correct me
Ergh, just woke up. Not going to listen to the song.
Code:
C	Cmaj7     Am     C
Ame ame fure fure kaasan ga

F      C         G        C
Janome de omukae ureshiina

F	    Em	        G       C
pichi pichi chapu chapu ran ran ran

Repeat except on the very last C of the song, you just slowly ring out the chord.
__________________

少し頭冷やそうか?
Bananoha is offline   Reply With Quote
Old 2010-08-02, 08:37   Link #495
Bolt237
Senior Member
 
 
Join Date: Aug 2010
Age: 20
Utayo!!miracle

Hello all, just joined the forum so I can contribute to this thread.
I've been listening very very carefully to Uytauyo!!Miracle, and I think I have tabbed at least the first 30 seconds or so very accurately.

Also, are all complete tabs being posted to ultimate-guitar? it would make it a lot easier to find them than to sift through 25 pages of this thread.

Here's what I've got so far:

INTRO
*use whammy bar for first chord

e|---------------------------------------------------------------|
B|----9~---------------------------------------------------------|
G|----7~---------------------------------------------------------|
D|----8~------------------------8---8\---------------------------|
A|----8~------------------------8---8\---------------------------|
E|------------------------------6---6\---------------------------|

Will not tab out the rhythm for this. Just listen.
One guitarist plays without the bracketed notes (power chords)
the other plays with them
palm mutes on the second part (I'm not sure how to format in the tab)

e|---------------------------------------------------------------|
B|------------------[4]------------------------------------------|
G|---[5]--[7]--[3]---5--------[5]--[7]---------88-----------88---|
D|----6----8----5----5---------6----8-------88---88-----88----88-|
A|----6----8----5----3---------6----8----66----------66----------|
E|----4----6----3--------------4----6----------------------------|

e|---------------------------------------------------------------|
B|------------------[4]------------------------------------------|
G|---[5]--[7]--[3]---5--------4---6------------------------------|
D|----6----8----5----5--------4---6------------------------------|
A|----6----8----5----3--------2---4------------------------------|
E|----4----6----3------------------------------------------------|

GUITAR 1 (Yui)

e|---------------------------------------------------------------|
B|---(8)----------------12-12/13---------------------------------|
G|----8h9---(x12)--------x--x--x---------------------------------|
D|-----------------------9--9/10---------------------------------|
A|---------------------------------------------------------------|
E|---------------------------------------------------------------| (x4)

GUITAR 2 (Azusa)

e|---------------------------------------------------------------|
B|--------------------------11----12-12/13-----------------------|
G|--------8--10---11--12----10----x---x--x-----------------------|
D|---10---8--10---11--12----8-----9---9-/10----------------------|
A|---10---6---8---9---10-----------------------------------------|
E|---8-----------------------------------------------------------| (x4)

BOTH GUITARS
e|---------------------------------------------------------------|
B|---------------------------------------------------------------|
G|------8---7---6---5--------------------------------------------|
D|------8---7---6---5--------------------------------------------|
A|------6---5---4---3--------------------------------------------|
E|------6---5---4---3--------------------------------------------|

I only have one guitar for this next part.
Again, rhythm is not tabbed.
From here on I am not very sure it's very accurate.

e|---------------------------------------------------------------|
B|---------------------------------------------------------------|
G|------5---------------5----------------------------------------|
D|------5---------------5----------------------------------------|
A|------3---6-6/7--3--3------------------------------------------|
E|---------------------------------------------------------------| (repeat some number of times)

Palm mute on the first 8 notes
e|---------------------------------------------------------------|
B|---------------------------------------------------------------|
G|---------------------------------------------------------------|
D|--2345432---6-6-5-------2345432----------8-8-9-----------------|
A|-3----------6-6-5------3-----------------8-8-10----------------|
E|------------4-4-3------------------------6-6-7-----------------|


Phew!
I'll post more when I figure it out.
Bolt237 is offline   Reply With Quote
Old 2010-08-02, 15:43   Link #496
Afternoon Tea
Ta~Da!!
*Artist
 
 
Join Date: Mar 2010
Location: Illinois, United States
Age: 20
Send a message via Skype™ to Afternoon Tea
^^ good job there awesome and thanks!
__________________
====
Signature:
Yui Hirasawa
====
MyBlog:
Blog!

====
Quote:
"I'll send
all my loving
to you.
"


Afternoon Tea is offline   Reply With Quote
Old 2010-08-02, 20:36   Link #497
Moogie
quick scopes anyone?
 
 
Join Date: Jan 2010
any luck for tabs on Kira Kira Days? LOL since it just came out. but I'm just wondering. People came out with pure-pure heart tabs on the first day too so yeah.
__________________
PLEASE VISIT http://www.youtube.com/TheMoogieCoptr please watch comment and subscribe.
Moogie is offline   Reply With Quote
Old 2010-08-03, 06:54   Link #498
MagnaDrake
iAmAwesome
 
 
Join Date: Jun 2010
Quote:
Originally Posted by Moogie View Post
any luck for tabs on Kira Kira Days? LOL since it just came out. but I'm just wondering. People came out with pure-pure heart tabs on the first day too so yeah.
Managed to find the first 30 seconds on that. Prolly finishes in a week or so if I have more time
MagnaDrake is offline   Reply With Quote
Old 2010-08-03, 09:46   Link #499
BlackSnowz
Junior Member
 
Join Date: Aug 2010
Hello, could anyone help to translate the keyboard part of No,Thank You? The video below is an example of it, I really want to learn the keyboard of K-On songs. Hope anyone in this topic would be kind enough to help me out


BlackSnowz is offline   Reply With Quote
Old 2010-08-03, 09:51   Link #500
Tsumugi~
"This guy are sick."
 
 
Join Date: Apr 2010
Location: Italy
Quote:
Originally Posted by BlackSnowz View Post
Hello, could anyone help to translate the keyboard part of No,Thank You? The video below is an example of it, I really want to learn the keyboard of K-On songs. Hope anyone in this topic would be kind enough to help me out


Mio was right, keyboard sure looks fun :0
__________________
http://forums.animesuki.com/images/as.icon/signaturepics/sigpic108725_72.gif
Tsumugi~ is offline   Reply With Quote
Reply

Thread Tools

Posting Rules
You may not post new threads
You may not post replies
You may not post attachments
You may not edit your posts

BB code is On
Smilies are On
[IMG] code is On
HTML code is Off

Forum Jump


All times are GMT -5. The time now is 03:30.


Powered by vBulletin® Version 3.8.7
Copyright ©2000 - 2014, vBulletin Solutions, Inc.
We use Silk.