AnimeSuki Forums

Register Forum Rules FAQ Members List Social Groups Search Today's Posts Mark Forums Read

Go Back   AnimeSuki Forum > Anime Discussion > Older Series > Retired > K-On!

Notices

Reply
 
Thread Tools
Old 2010-08-03, 10:05   Link #501
BlackSnowz
Junior Member
 
Join Date: Aug 2010
Yea, fun but it's like a total mystery :S
BlackSnowz is offline   Reply With Quote
Old 2010-08-03, 10:28   Link #502
kssael
Don't say "Crabcore"!
 
 
Join Date: Jan 2010
Location: God knows
Age: 27
Gonna cover "NO, Thank You!" this Thursday on drums with 100% improvised fills. I shall do a full tab this time.
__________________
kssael is offline   Reply With Quote
Old 2010-08-03, 10:36   Link #503
shyezrylei
Intoxicated Guitarist
 
 
Join Date: Apr 2010
Location: Where music always plays!
Age: 24
Send a message via MSN to shyezrylei Send a message via Yahoo to shyezrylei
Quote:
Originally Posted by kssael View Post
Gonna cover "NO, Thank You!" this Thursday on drums with 100% improvised fills. I shall do a full tab this time.
Awesome kssael! I can't wait to see you in action!
__________________
Check me out at http://www.youtube.com/shyezrylei for *WTF* K-ON! Fandubs, Guitar Covers and such. Like, Comment and Subscribe.
shyezrylei is offline   Reply With Quote
Old 2010-08-03, 11:35   Link #504
Sparvid
*hic*
 
 
Join Date: Oct 2009
Location: A Swede in Tokyo
Quote:
Originally Posted by BlackSnowz View Post
Hello, could anyone help to translate the keyboard part of No,Thank You? The video below is an example of it, I really want to learn the keyboard of K-On songs. Hope anyone in this topic would be kind enough to help me out
If you want the sheet music, the second Season 2 Band Yarouyo CD with Utauyo Miracle and No, Thank You will be out in September: http://www.cdjapan.co.jp/detailview.html?KEY=PCCG-1063
__________________
Sparvid is offline   Reply With Quote
Old 2010-08-03, 13:57   Link #505
Afternoon Tea
Ta~Da!!
*Artist
 
 
Join Date: Mar 2010
Location: Illinois, United States
Age: 20
Send a message via Skype™ to Afternoon Tea
Thanks to Bananoha for tabing and showing where each part is at! I Like your version of the song more
__________________
====
Signature:
Yui Hirasawa
====
MyBlog:
Blog!

====
Quote:
"I'll send
all my loving
to you.
"



Last edited by Afternoon Tea; 2010-08-04 at 13:58.
Afternoon Tea is offline   Reply With Quote
Old 2010-08-04, 10:37   Link #506
BlackSnowz
Junior Member
 
Join Date: Aug 2010
Quote:
Originally Posted by Sparvid View Post
If you want the sheet music, the second Season 2 Band Yarouyo CD with Utauyo Miracle and No, Thank You will be out in September: http://www.cdjapan.co.jp/detailview.html?KEY=PCCG-1063
OH! Nice!!! thank you so much looks like its one month of waiting i suppose :S while i try to figure out parts of the song myself
BlackSnowz is offline   Reply With Quote
Old 2010-08-04, 17:11   Link #507
Bolt237
Senior Member
 
 
Join Date: Aug 2010
Age: 21
OK, I tabbed some more of it and fixed what I had
Up next is the hard part, but I might just wait for the sheet music
What I've got so far should be able to take you through the short version (1:30)

Code:
Utauyo!!MIRACLE
Performed by Hougako Tea time


INTRO

Guitar 1
*use whammy bar for first chord
e|---------------------------------------------------------------|
B|-------9~--------------------11-11\----------------------------|
G|-------7~--------------------10-10\----------------------------|
D|-------8~---------------------8--8\----------------------------|
A|-------8~------------------------------------------------------|
E|---------------------------------------------------------------|
								 |
Guitar 2							 |								 |
e|---------------------------------------------------------------|
B|---------------------------------------------------------------|
G|---------------------------------------------------------------|
D|------------------------------8---8\---------------------------|
A|------------------------------8---8\---------------------------|
E|------------------------------6---6\---------------------------|


CHORUS
*A . underneath means palm mute.

Guitar 1
e|-------------------------------------------------------------------------| 
B|---------------------------4---------------------------------------------| 
G|--5-5--5-----7------4------5---5-5--5--7-7--7---------88----------88-----|
D|--6-6--6-----8------5------5---6-6--6--8-8--8------88----88----88----88--|
A|--6-6--6-----8------5--33333---6-6--6--8-8--8---66----------66-----------|
E|--4-4--4-66666--33333----------4-4--4--6-6--6----------------------------|
	   ....	  ....	 ....			  .. .. .. .. .. .. .. ..  |					 				   |
Guitar 2           			        			   |
e|-------------------------------------------------------------------------| 
B|-------------------------------------------------------------------------| 
G|---------------------------5---------------------------------------------|
D|--6-6--6-----8------5------5---6-6--6--8-8--8----------------------------|
A|--6-6--6-----8------5--33333---6-6--6--8-8--8---66-66-66-66-66-66-66-66--|
E|--4-4--4-66666--33333----------4-4--4--6-6--6----------------------------|
	   ....	  ....	 ....			  .. .. .. .. .. .. .. ..


Guitars 1&2
*Guitar 1 continues to play bracketed notes.
e|--------------------------------------------------------------| 
B|--------------------------[4]---------------------------------| 
G|-[5-5--5]---[7]----[4]-----5-------4-------4-----6--6--6--6---|
D|--6-6--6-----8------5------5-------4-------4-----6--6--6--6---|
A|--6-6--6-----8------5--33333---2-2-2-2-2-2-2-2---4--4--4--4---|
E|--4-4--4-66666--33333-----------------------------------------|
	   ....   ....   ....    . .   . . .   .


FILL A

Guitar 1
e|---------------------------------------------------------------|
B|---(8)-------------------------12-12/13------------------------|
G|----8h9---(x12)-----------------x--x--x------------------------|
D|--------------------------------9--9/10------------------------|
A|---------------------------------------------------------------|
E|---------------------------------------------------------------|
								 |
Guitar 2							 |								 |
e|---------------------------------------------------------------|
B|--------------------------11----12-12/13-----------------------|
G|--------8--10---11--12----10-----x--x--x-----------------------|
D|---10---8--10---11--12----8------9--9/10-----------------------|
A|---10---6---8---9---10-----------------------------------------|
E|----8----------------------------------------------------------| (x4)


FILL B

Guitars 1&2
e|---------------------------------------------------------------|
B|---------------------------------------------------------------|
G|------8---7---6---5--------------------------------------------|
D|------8---7---6---5--------------------------------------------|
A|------6---5---4---3--------------------------------------------|
E|------6---5---4---3--------------------------------------------|


VERSE A

Guitar 1
*Pinch (artificial) harmonic
e|---------------------------------------------------------------|
B|-13\------------------------------13\---------------x-x-x-*11~-|
G|-12\------------------------------12\---------------x-x-x------|
D|-10\------1-/2--5--1-/2-3-5--/8-8-10\------1-/2--5--x-x-x------|
A|--------------3--------------------------------3---------------|
E|---------------------------------------------------------------|
				. .				 |
Guitar 2							 |
e|---------------------------------------------------------------|
B|---------------------------------------------------------------|
G|--5-x-x-x-5-x-x-5-x-x-x-x-5---3----5-x-x-x-5-x-x-5--x-x-x------|
D|--5-x-x-x-5-x-x-5-x-x-x-x-5---3----5-x-x-x-5-x-x-5--x-x-x------|
A|--3-x-x-x-3-x-x-3-x-x-x-x-3---1----3-x-x-x-3-x-x-3--x-x-x------|
E|---------------------------------------------------------------| (x2)


VERSE B

Guitar 1
e|---------------------------------------------------------------|
B|---------------------------------------------------------------|
G|----------------------11-12~-----------------------------------|
D|---2-3-4-5-4-3-2--6/10----------2-3-4-5-4-3-2-----8--8--9------|
A|-3----------------------------3-------------------8--8-10------|
E|--------------------------------------------------6--6--7------|
   . . . . . . . .		. . . . . . . .	 *	^	 |
						 *Either is fine |
Guitar 2					 *	v	 |
e|---------------------------------------------------------------|
B|---------------------------------------------------------------|
G|--------------------------------------------------3--3--4------|
D|---2-3-4-5-4-3-2---6-6-5--------2-3-4-5-4-3-2-----3--3--5------|
A|-3-----------------6-6-5------3-------------------1--1--2------|
E|-------------------4-4-3---------------------------------------|
   . . . . . . . .		. . . . . . . .


Guitar 1			Guitars 1&2
e|-----------------------------|---------------------------------|
B|-----------------------------|---------------------------------|
G|----------------------11-12~-|-----7-----7---------9-------9---|
D|---2-3-4-5-4-3-2--6/10-------|-----7-----7---------9-------9---|
A|-3---------------------------|-5-5-5-5-5-5-5-5-7-7-7-7-7-7-7-7-|
E|-----------------------------|---------------------------------|
   . . . . . . . .	       | . .   . .   . . . .   . . .   .
Guitar 2		       |
  P.M.------------|	       |
e|-----------------------------|
B|-----------------------------|
G|-----------------------------|
D|---2-3-4-5-4-3-2---6-6-5-----|
A|-3-----------------6-6-5-----|
E|-------------------4-4-3-----|
   . . . . . . . .

Guitars 1&2
e|--------------------------------------6~------------------------|
B|-----------------------------------6~---------------------------|
G|--10--10--10-12-----------5~----7-------------------------------|
D|--10--10--10-10--------6--------8-------------------------------|
A|---8---8---8-10-----6--------8----------------------------------|
E|--------------------4--------6----------------------------------|
		      .  .     .  .  


CHORUS


CHORUS (Modified)

Guitar 1
e|----------------------------------------------------------------------------| 
B|---------------------------4------------------------------------------------| 
G|--5-5--5-----7------4------5---5-5--5--7-7--7---------88-1010-------88-1010-|
D|--6-6--6-----8------5------5---6-6--6--8-8--8------88------------88---------|
A|--6-6--6-----8------5--33333---6-6--6--8-8--8---66------------66------------|
E|--4-4--4-66666--33333----------4-4--4--6-6--6-------------------------------|
	   ....	  ....	 ....			  .. .. ..  . . .. .. ..  . . |					 				   |
Guitar 2           			        			      |
e|----------------------------------------------------------------------------| 
B|----------------------------------------------------------------------------| 
G|---------------------------5------------------------------------------------|
D|--6-6--6-----8------5------5---6-6--6--8-8--8-------------------------------|
A|--6-6--6-----8------5--33333---6-6--6--8-8--8---66-66-66--6-6-66-66-66--6-6-|
E|--4-4--4-66666--33333----------4-4--4--6-6--6-------------------------------|
	   ....	  ....	 ....			  .. .. ..  . . .. .. ..  . .


Guitars 1&2
e|--------------------------------------------------------------| 
B|--------------------------[4]---------------------------------| 
G|-[5-5--5]---[7]----[4]-----5-------4-------4----x-6--6--6--6--|
D|--6-6--6-----8------5------5-------4-------4----x-6--6--6--6--|
A|--6-6--6-----8------5--33333---2-2-2-2-2-2-2-2--x-4--4--4--4--|
E|--4-4--4-66666--33333-----------------------------------------|
	   ....   ....   ....    . .   . . .   .
Feedback please

Edit: If someone could check the pinch harmonic, that'd be great (I suck at executing pinches)
Bolt237 is offline   Reply With Quote
Old 2010-08-05, 02:58   Link #508
BlackKnightKanos
Lord of The Netherealm
 
 
Join Date: Jun 2010
Location: Philippines
Send a message via Yahoo to BlackKnightKanos
Ta da! Sorry to ruin someones hard work, but we've had the TV version for quite a while now.
BlackKnightKanos is offline   Reply With Quote
Old 2010-08-05, 12:46   Link #509
Bolt237
Senior Member
 
 
Join Date: Aug 2010
Age: 21
I know it's been tabbed already, it's not ruined. It's just that the one I came up with is different, and in my humble opinion, sounds a little more accurate.
Bolt237 is offline   Reply With Quote
Old 2010-08-05, 13:38   Link #510
-Rhythm
けいおん!
 
 
Join Date: Aug 2010
Location: Singapore.
Hello! Anybody have printable version of bass tab for 'No, Thank You!'?
-Rhythm is offline   Reply With Quote
Old 2010-08-05, 21:17   Link #511
kssael
Don't say "Crabcore"!
 
 
Join Date: Jan 2010
Location: God knows
Age: 27
Kinda rushed but, here you go!

__________________

Last edited by kssael; 2010-08-05 at 23:10.
kssael is offline   Reply With Quote
Old 2010-08-05, 22:54   Link #512
bloppyblue
SLEEP IS FOR THE WEAK!!!
 
 
Join Date: Feb 2007
Just wondering, has anyone tabbed Girly Storm Shissou Stick (Ritsu's character song)?

http://www.youtube.com/watch?v=XDivl7OYeFM

(sorry, I don't know how to embed)

It sounds like such a fun song to play to.
bloppyblue is offline   Reply With Quote
Old 2010-08-06, 03:54   Link #513
BlackKnightKanos
Lord of The Netherealm
 
 
Join Date: Jun 2010
Location: Philippines
Send a message via Yahoo to BlackKnightKanos
Quote:
Originally Posted by Bolt237 View Post
I know it's been tabbed already, it's not ruined. It's just that the one I came up with is different, and in my humble opinion, sounds a little more accurate.
Ok. Also, if you do end up tabbing the full version of the song, that would be awesome.
BlackKnightKanos is offline   Reply With Quote
Old 2010-08-06, 18:25   Link #514
[T]ensio[N]
Moe Moe Kyun~ <3
 
 
Join Date: Apr 2010
Location: California
Age: 19
http://www.youtube.com/watch?v=iZmVb...eature=channel

this guy is really good :O
you guys should check out his channel. when i try to learn the drum tabs by ear i listen to his videos
__________________
「No Thank You!!」
[T]ensio[N] is offline   Reply With Quote
Old 2010-08-06, 20:55   Link #515
Tsumugi~
"This guy are sick."
 
 
Join Date: Apr 2010
Location: Italy
Thumbs up

Quote:
Originally Posted by kssael View Post
Kinda rushed but, here you go!

Really good
__________________
http://forums.animesuki.com/images/as.icon/signaturepics/sigpic108725_72.gif
Tsumugi~ is offline   Reply With Quote
Old 2010-08-09, 08:31   Link #516
Mishi-Kun
Junior Member
 
 
Join Date: Aug 2009
Kinda rushed, but here you go Go Go Maniac by me.

http://www.youtube.com/watch?v=YsmXeTR9ZjY

And also my brother got his hands on the Band Score, with all the Tabs I think it's about 1.9gb worth of pages and other stuff. He said he'll be uploading them soon, I'll just link you guys when he does.
__________________
http://www.youtube.com/user/mishael999
Mabinogi.
Guitar Covers.
Awesome.
Mishi-Kun is offline   Reply With Quote
Old 2010-08-09, 08:37   Link #517
Tsumugi~
"This guy are sick."
 
 
Join Date: Apr 2010
Location: Italy
Quote:
Originally Posted by Mishi-Kun View Post
Kinda rushed, but here you go Go Go Maniac by me.

http://www.youtube.com/watch?v=YsmXeTR9ZjY

And also my brother got his hands on the Band Score, with all the Tabs I think it's about 1.9gb worth of pages and other stuff. He said he'll be uploading them soon, I'll just link you guys when he does.
Pretty good cover^^
__________________
http://forums.animesuki.com/images/as.icon/signaturepics/sigpic108725_72.gif
Tsumugi~ is offline   Reply With Quote
Old 2010-08-09, 15:44   Link #518
Mishi-Kun
Junior Member
 
 
Join Date: Aug 2009
Another quick Cover
Utauyo Miracle done in my own way

http://www.youtube.com/watch?v=XXvE1zmFJJ4
__________________
http://www.youtube.com/user/mishael999
Mabinogi.
Guitar Covers.
Awesome.
Mishi-Kun is offline   Reply With Quote
Old 2010-08-10, 00:49   Link #519
kssael
Don't say "Crabcore"!
 
 
Join Date: Jan 2010
Location: God knows
Age: 27
This guy's awesome!

__________________
kssael is offline   Reply With Quote
Old 2010-08-10, 00:53   Link #520
Tsumugi~
"This guy are sick."
 
 
Join Date: Apr 2010
Location: Italy
Quote:
Originally Posted by kssael View Post
This guy's awesome!

Lol it would've been better with Mio's voice
__________________
http://forums.animesuki.com/images/as.icon/signaturepics/sigpic108725_72.gif
Tsumugi~ is offline   Reply With Quote
Reply

Thread Tools

Posting Rules
You may not post new threads
You may not post replies
You may not post attachments
You may not edit your posts

BB code is On
Smilies are On
[IMG] code is On
HTML code is Off

Forum Jump


All times are GMT -5. The time now is 21:32.


Powered by vBulletin® Version 3.8.7
Copyright ©2000 - 2014, vBulletin Solutions, Inc.
We use Silk.