AnimeSuki Forums

Register Forum Rules FAQ Members List Social Groups Search Today's Posts Mark Forums Read

Go Back   AnimeSuki Forum > Anime Discussion > Older Series > Retired > Retired A-L > K-On!

Notices

Reply
 
Thread Tools
Old 2009-11-08, 14:35   Link #141
speck123
Senior Member
 
Join Date: Jan 2009
Quote:
Originally Posted by VentAileron View Post
There's one thing I didn't know what it meant though. It's for guitar and it says 'cho.'. It connects two exactly (maybe not in length) the same notes as far as I've seen. Other owners of the score probably know what I mean.
So what is it? Fude Pen ~Boru Pen~ has it in its opening (together with a D symbol, also connecting two notes). I just bend up and down for it at the moment...
Maybe 'cho' is short for choking. aka the term Mio used to describe bending in episode 4.
speck123 is offline   Reply With Quote
Old 2009-11-09, 16:07   Link #142
VentAileron
Senior Member
 
 
Join Date: Jul 2009
Now you mention it...

There was a lot of controversy about the meaning of 'choking' in 'Japanese' music terms. Well Mio obviously meant bending, but hey! I understand why people get confused about it. I thought it was palm muting myself, that's why I didn't mention 'choking' when I asked the question, since I ruled out palm muting already.

But boy am I wrong. Thanks for pointing it out.
__________________
I don't get people. Never have. Never will.
VentAileron is offline   Reply With Quote
Old 2009-11-10, 05:35   Link #143
spaine214
Junior Member
 
Join Date: Nov 2009
Can anyone make a tutorial on this....

http://www.youtube.com/watch?v=wr-ao...eature=related
spaine214 is offline   Reply With Quote
Old 2009-11-11, 13:04   Link #144
Kudryavka
Senior Member
 
 
Join Date: May 2009
For anyone who has the K-ON! Official Band Yarou Yo! CD/book, what's an "NG Take"? Is the NG short for "no good" (the opposite of OK in Japlish, meaning NG Take is a sloppy way of playing), or is an NG Take an actual style of playing? I see that some of the tracks on the 2nd CD (the How To Play Cagayake! Girls one) are called "NG Takes".
Kudryavka is offline   Reply With Quote
Old 2009-11-19, 16:02   Link #145
PrimulaRosea
プリムラ・ロセア
 
Join Date: Oct 2008
it's No Good obviously

i think it's been widely use on japan, i know an eroge with "NG" on its title and you read it as "dame" which can be translate as no good..

maa, CMIIW
PrimulaRosea is offline   Reply With Quote
Old 2009-11-19, 19:13   Link #146
Jintor
Senior Member
 
Join Date: Dec 2007
Location: Land Down Under
Age: 23
http://www.youtube.com/watch?v=6Qez1Io_Wss

This guy has good lessons for near-absolute beginners for playing Cagayake! Girls.

I literally learnt to play guitar yesterday over YouTube and I could follow this, so...
Jintor is offline   Reply With Quote
Old 2009-11-20, 19:50   Link #147
coderlan
Student
 
 
Join Date: Sep 2009
Location: Philippines
Can somebody give me Guitar tabs for Cagayake Girls?
coderlan is offline   Reply With Quote
Old 2009-11-20, 21:08   Link #148
Jintor
Senior Member
 
Join Date: Dec 2007
Location: Land Down Under
Age: 23
Learn it off the YouTube video above. It's not too hard with his guidance. :3
Jintor is offline   Reply With Quote
Old 2009-11-21, 04:26   Link #149
rockmanxpr
Senior Member
 
 
Join Date: May 2009
Well I ordered my copy of the Score book, hopefully will be here in a couple of weeks, and then onto a cover of Fuwa Fuwa Time
rockmanxpr is offline   Reply With Quote
Old 2009-11-21, 19:20   Link #150
vedicardi
Well I FEEL normal..
 
 
Join Date: Apr 2009
Anyone know the tuning for Maddy Caddy? I think it might be Eb but I haven't really tried checking.
vedicardi is offline   Reply With Quote
Old 2009-11-21, 20:32   Link #151
bhl88
Otaku Apprentice
 
 
Join Date: Jun 2008
Location: The Unseen Horizon
Send a message via MSN to bhl88 Send a message via Yahoo to bhl88
Quote:
Originally Posted by rockmanxpr View Post
Well I ordered my copy of the Score book, hopefully will be here in a couple of weeks, and then onto a cover of Fuwa Fuwa Time
Got mine too XD but I used the cheaper way to mail XD (1-3 weeks)
__________________

Dang it Avalon, you c(XD LOL)-block Shirou and Reinforce, but don't protect his mind in other ways? What is wrong, you woman?
Friendship, be made! Magical power, gather! Starlight Breaker.... this world!
bhl88 is offline   Reply With Quote
Old 2009-12-04, 21:35   Link #152
rockmanxpr
Senior Member
 
 
Join Date: May 2009
Quote:
Originally Posted by bhl88 View Post
Got mine too XD but I used the cheaper way to mail XD (1-3 weeks)
Woot! Got my scorebook today, guess next week start practicing and recording
rockmanxpr is offline   Reply With Quote
Old 2009-12-05, 02:23   Link #153
bhl88
Otaku Apprentice
 
 
Join Date: Jun 2008
Location: The Unseen Horizon
Send a message via MSN to bhl88 Send a message via Yahoo to bhl88
lol I got my scorebook... time to get Gitah XD
__________________

Dang it Avalon, you c(XD LOL)-block Shirou and Reinforce, but don't protect his mind in other ways? What is wrong, you woman?
Friendship, be made! Magical power, gather! Starlight Breaker.... this world!
bhl88 is offline   Reply With Quote
Old 2009-12-06, 16:12   Link #154
Pyro-Fire
Junior Member
 
Join Date: Dec 2009
I enjoyed the song "Hold Onto your Love" (track 15) of the ost.
Using this video, i've started a tab for it.
http://www.youtube.com/watch?v=p0k6C7XXAFE

I don't know if i've got all the notes right, and i can guarantee that the timing isn't right.
But hey, this is my first tab.

Massive thanks to the person who posted that video.

As of writing this, i'm about half way through the faster part, and i'll update this post.
If anyone would like to assist, feel free.
http://rapidshare.com/files/31724322..._love.gp5.html

Don't forget, i'm attempting to tab his cover, and not the actual song.

Or for those of you who just want to take a quick look at the tab, and/or don't have guitar pro, heres the ascii export from guitar pro:
(note: use the video for timing, some parts i didn't bother getting the right note lengths for, and just wanted to get the right notes down)

Code:
Track 1
      E   E   E   Q     E   Q        E  E   H        E   E   
E||------------------------------|--------------------------|
B||------12--11------------------|--------------------------|
G||--------------13--------------|--------------------------|
D||--13----------------13--13----|--11--9--11--------9--11--|
A||------------------------------|--------------------------|
E||------------------------------|--------------------------|


   W                   E  E  E  Q    E  Q       E  E  Q    E  E  Q      
--------------------|-----7--6--4------------|-------------------------|
--------------------|--4-------------4--4----|-------------------------|
--------------------|------------------------|--6--4--6----4--6--6b----|
--13----------------|------------------------|-------------------------|
--------------------|------------------------|-------------------------|
--------------------|------------------------|-------------------------|


  E  H.            E      E  E  E  E  E  E   E   T   S. 
----------------------|------------------9--11--11h-12-|
--7-------------------|---------------9----------------|
-----6b------------L--|---------8--9-------------------|
----------------------|------9-------------------------|
----------------------|--11----------------------------|
----------------------|--------------------------------|


   H         Q     S  E   S      H         S  S  E    Q     
---L--------12----11p-9--11b-|---L-------------------------|
-----------------------------|------------------14b---L----|
-----------------------------|---------------12------------|
-----------------------------|------------14---------------|
-----------------------------|-----------------------------|
-----------------------------|-----------------------------|


             3  3  3                                                 
   Q      S  T  T  H         Q     S     E   E   Q      Q     Q      
-------------------------------------|-----------------11-----------|
--14b----14-13-12-11---------L-----L-|--11--12--14b----------14b----|
-------------------------------------|------------------------------|
-------------------------------------|------------------------------|
-------------------------------------|------------------------------|
-------------------------------------|------------------------------|


   Q     H.                W                     W                   
--11----11-------------|--17b----------------|----------------------|
--------14b------------|--17b----------------|--18br----------------|
-----------------------|---------------------|--18br----------------|
-----------------------|---------------------|----------------------|
-----------------------|---------------------|----------------------|
-----------------------|---------------------|----------------------|


   H          E   E   E   E      E   H          E    Q     
---------------------11------|----------------------------|
--14~--------12--14------12--|----------------------------|
-----------------------------|--13--13~---------L~---L----|
-----------------------------|----------------------------|
-----------------------------|----------------------------|
-----------------------------|----------------------------|


  E    E  E  E  E  E  Q         E  E  E  E  Q     E  E   
-----------------------------|--------------------------|
-----------------------------|--------------------------|
--6br--6--4-----4------------|--------------4b----------|
-------------6-----6--6b~----|--------4--6--------6-----|
-----------------------------|--4--6-----------------6--|
-----------------------------|--------------------------|


  E  E  E  E  E  E  Q        H           
--------------------------|------------||
--------------------------|------------||
--------------------------|------------||
--4-----------------4b----|------------||
-----6--4--2--4--6--------|--6~--------||
--------------------------|------------||
Pyro-Fire is offline   Reply With Quote
Old 2009-12-14, 18:31   Link #155
Gutter
Junior Member
 
Join Date: Jan 2009
Location: England
Send a message via MSN to Gutter
Hey, Pyro-Fire. Loving your work! I can't wait until you finish that tab, however, I'm having trouble downloading from Rapidshare (need to get a paid subscription). Could you maybe upload it to Mediafire or something instead?
Gutter is offline   Reply With Quote
Old 2009-12-16, 00:36   Link #156
rockmanxpr
Senior Member
 
 
Join Date: May 2009
Well early Merry Christmas, here's my gift to you musicians

https://download.yousendit.com/Z01QaUNPK3h5UkhIRGc9PQ

It's the drums for Watashi no Koi wa Hachikisu, beginning has a 8 beat countoff before the drums kick in, the tempo is 130 BPM.

I programmed the MIDI file and used the K-On score book that I just got so if you have the book you know whats happening. The software used is EXDdrummer. I would still classify this as a work in progress but its good enough to play along to.

Now I'll take a count of what the next song should be for drums, I'm thinking Cagayake Girls or Fuda pen Ball Pen....

Last edited by rockmanxpr; 2009-12-16 at 14:29.
rockmanxpr is offline   Reply With Quote
Old 2009-12-17, 02:09   Link #157
rockmanxpr
Senior Member
 
 
Join Date: May 2009
I have also a Youtube vid of the drums for those who don't want to wait for the download

rockmanxpr is offline   Reply With Quote
Old 2009-12-19, 20:32   Link #158
bhl88
Otaku Apprentice
 
 
Join Date: Jun 2008
Location: The Unseen Horizon
Send a message via MSN to bhl88 Send a message via Yahoo to bhl88
Cagayake Girls! (But I believe it should have missing instrument except for 3 or 4 depending on what you like to play).

I like that one youtube video
__________________

Dang it Avalon, you c(XD LOL)-block Shirou and Reinforce, but don't protect his mind in other ways? What is wrong, you woman?
Friendship, be made! Magical power, gather! Starlight Breaker.... this world!
bhl88 is offline   Reply With Quote
Old 2009-12-22, 13:38   Link #159
Gutter
Junior Member
 
Join Date: Jan 2009
Location: England
Send a message via MSN to Gutter
Hey guys. I got a question to those of you who bought the K-ON Band Score book. Are the guitar parts in tablature form? Or is it all written in proper notation?
Gutter is offline   Reply With Quote
Old 2009-12-22, 15:03   Link #160
rockmanxpr
Senior Member
 
 
Join Date: May 2009
Quote:
Originally Posted by Gutter View Post
Hey guys. I got a question to those of you who bought the K-ON Band Score book. Are the guitar parts in tablature form? Or is it all written in proper notation?
It has both tab and notation
rockmanxpr is offline   Reply With Quote
Reply

Thread Tools

Posting Rules
You may not post new threads
You may not post replies
You may not post attachments
You may not edit your posts

BB code is On
Smilies are On
[IMG] code is On
HTML code is Off

Forum Jump


All times are GMT -5. The time now is 06:51.


Powered by vBulletin® Version 3.8.8
Copyright ©2000 - 2015, vBulletin Solutions, Inc.
We use Silk.