View Single Post
Old 2007-05-02, 17:51   Link #81
Titane-Mammothe
Junior Member
 
Join Date: May 2007
Quote:
Originally Posted by thecowninja View Post
If anyone is awesome enough to find these, can anyone find tabs/sheet music/whatever for Battle of Rose by Mitsumune Shinkichi/Rozen Maiden, and any of the songs from School Rumble. Thanks a lot in advance. ^^
I can do most of Battle of Rose, but only the violin piece, I spent yesterday working that out and the guitar solo in the middle is driving me nuts at the moment. I'll post it when I figure it out though.

Quote:

----15--------15---15--13h15p13-------------------------------------------------------------
-13--------13-------------------------16-15s11------------------11h13h15--------9h11h13
-----------------------------------------------------12---12-13---------------12--------------
---------------------------------------------------------------------------------------------------
---------------------------------------------------------------------------------------------------
---------------------------------------------------------------------------------------------------


-----11-10------------------
-------------13-12(trill)---
-10------------------------
----------------------------
---------------------------
--------------------------

X2

Then:

------------------------------------------------------------------------------
--13-15-13h15-16-15h16-18-16h18-20------21-20-18-16-16-18p16-15
-----------------------------------------17----------------------------
------------------------------------------------------------------------------
------------------------------------------------------------------------------
------------------------------------------------------------------------------


----------16p15-16p15---------------------------------------------
---------------------------18-16-15--15s13-15p13-------------
-15-17-------------------------------------------------15p13-----
------------------------------------------------------------------17
----------------------------------------------------------------------
----------------------------------------------------------------------


--15p13-15p13-----------------------------------------------
--------------------16-15-13--13s11-13p11---------------
---------------------------------------------------13-12-------
------------------------------------------------------------15--
-----------------------------------------------------------------
-----------------------------------------------------------------


--13p11-13p11------------------------------------------
-------------------15-13-12h13p12------10h12h13--
-------------------------------------------------------------
-------------------------------------------------------------
-------------------------------------------------------------
-------------------------------------------------------------


That's all the violin parts there are, after this it just repeats the same bits.

Last edited by Titane-Mammothe; 2007-05-03 at 14:43. Reason: Dodgy spacing
Titane-Mammothe is offline   Reply With Quote